Dandy WarholsMohammed Текст, аккорды

0 Голосов
Band: The Dandy Warhols

Song: Mohammed
Tabbed by: Thom


To get this sounding perfect, 'as recorded' you should tune down something
like a quarter of a step, but it sounds spot on in regular tuning anyway.

The chord progression, throughout the song is; (Em/D/A, Em/D/A, Em/D/A/D/A)


Intro: The first minute of the song is drums and effects.

At about 1:10 the acoustic guitar starts picking from the chords, within the
progression and Pete plays this lead:

RIFF 1:
e|-------------------------------------------------------------------------|
B|-12b13r12---7--8--5--3/5---12b13r12---7--8--(8)/10--8-7-5----------------|
G|-------------------------------------------------------------------------|
D|-------------------------------------------------------------------------|
A|-------------------------------------------------------------------------|
E|-------------------------------------------------------------------------|

e|-------------------------------------------------------------------------|
B|-12b13r12---7--8--5--3/5-3/5---------------------------------------------|
G|-------------------------------------------------------------------------|
D|-------------------------------------------------------------------------|
A|-------------------------------------------------------------------------|
E|-------------------------------------------------------------------------|

Verse One:

Em D A
Again and again, I get up and say
Em D A Em
I only want to get it right,
D A D
I only want to do the right thing
A
who are these demons, i ask myself


(Riff 1) (with verse chords)


Verse Two:
Em D A Em
I won't be today, I'm alone again
D A Em
no one can make that alive,
D A D
no one can say they're better, not when
A
all this freedom you get is a lie


(Riff 1) with chords

Instrumental: comprising of the chord progression, strumed and picked.

Riff 2:
e|-------------------------------------------------------------------------|
B|-12b13r12---7--8--5--3/5---12b13r12---7--8--(8)/10--8-7-5----------------|
G|-------------------------------------------------------------------------|
D|-------------------------------------------------------------------------|
A|-------------------------------------------------------------------------|
E|-------------------------------------------------------------------------|

e|-------------------------------------------------------------------------|
B|-12b13r12---7--8--5--3/5-------------------------------------------------|
G|-------------------------------------------------------------------------|
D|-------------------------------------------------------------------------|
A|-------------------------------------------------------------------------|
E|-------------------------------------------------------------------------|

Outro: Chord progression with the following riff repeated and faded out from around 3:30.

Riff 3:
e|--15--14--12--9--7-------------------------------------------------------|
B|-------------------------------------------------------------------------|
G|-------------------------------------------------------------------------|
D|-------------------------------------------------------------------------|
A|-------------------------------------------------------------------------|
E|-------------------------------------------------------------------------|


| / slide up
| slide down
| b bend
| r release bend
|(8) ghost note
Другие песни: