Dance Hall CrashersHe Wants Me Back Текст

0 Голосов
Intro:
Guitar1
E E C#m C#m D#m D#m B B C#m C#m F# F# F# F# F#

Guitar1
B G#m C#m F#
Guitar2
[e------11h12h14--11----------------------11---9---------
B--12----------------12---------------9--12--11---------
G------------------------11/9--8-9-11-------------------
D-------------------------------------------------------
A-------------------------------------------------------
E-------------------------------------------------------]

Guitar1
B G#m C#m F#
Guitar2
[e------11h12h14--11------------11~~~~~~----------14~~~~~
B--12----------------12-----------12~~~---12p11~~~~11~~~
G------------------------11/9--------11---12p11~~~~~~11~
D-------------------------------------------------------
A-------------------------------------------------------
E-------------------------------------------------------]

Continue Guitar1 through horn part.

Verse 1Ж
Vocals
Yester day the leaves were brown
Guitar1
B G#m C#m F#
Guitar2
[e--------------------------------------------------------
B--------------------------------------------------------
G--8---11---X9--8-----------------------9--X8------------
D----------------------9------------11---------11-----8--
A--------------------------------------------------------
E--------------------------------------------------------]

Vocals
And I was wearing a big frown
Guitar1
B G#m C#m F#
Guitar2
[e---------------------------------------------------------
B---------------------------------------------------------
G--8---11---X9--8------------------------9--X8------------
D----------------------9-------------11---------11-----8--
A---------------------------------------------------------
E---------------------------------------------------------]

The guitar parts continue on the same way
through the following lyrics.

Lyrics:
Because my lover left me for the girl
that he had loved before
The sky was clowdy then turned blue.
Because I saw it was no use,
to want someone who's heart was elsewhere.
So I decided not to care (oh yeah)

Chorus:
Vocals
Be wants me back, but he can't have me
Guitar1
B G#m C#m F#
Vocals
Be wants me back, there's no deny ing
Guitar1
B G#m C#m F#
Vocals
Be wants me back, he's on his knees
Guitar1
B G#m C#m F#
Vocals
Now we'll see whos crying
Guitar1
B G#m C#m F#
Repeat the Intro and then go into Verse 2.

Lyrics:
The grass is greener without you (It's true)
So many things for me to do.
Living my life for me and on my own.
It is so great to be alone.
And now you're knocking at my door,
you've realized you love me more.
Well I've got no time to hear apologies,
I've got the world to see.

SOLO:
Guitar1
B G#m C#m F#
Guitar2
[e-------------------------------------------------------
B-----7h9p7~~-------------------------------------------
G--------------9-8-------------8h9p8-----8h9p8---------
D--------------------11--9--11--------11--------11--8---
A-------------------------------------------------------
E-------------------------------------------------------]

Guitar1
B G#m C#m F#
Guitar2
[e-------------------------------------------------------
B-------------------------------------------------------
G---------------------------------8----8-8h9p8----------
D----------------8-------8--9--11---11---------11-------
A--9~~~-----9-11-----11---------------------------------
E--11~~-------------------------------------------------]

Guitar1
B G#m C#m F#
Guitar2
[e-------------------------------------------------------
B--------7-----9~~~~~~-----7s5~~----------7-------------
G-----8-----8----8~~~~-----8s6~~-----5s6~~~~6~~---------
D-8s9--------------9~~---------------7s8~~~~~~8---------
A-------------------------------------------------------
E-------------------------------------------------------]

Guitar1
B G#m C#m F#
Guitar2
[e-------------------------------------------------------
B-------------------------------------------------------
G-------8h9h11---8-------------------------------6------
D----9---------------9------------------6--8--9----8--9-
A------------------------9s7----6--7--9-----------------
E-------------------------------------------------------]

Repeat the Verse form for the Outro... :)
Другие песни: