Даин и ВИА ВыдраПарабеллум Текст, аккорды

0 Голосов
Intro:
1|-------------------|
2|-------5-3-3-2-0-3-|
3|-------------------| x3
4|-0-4---------------|
5|-------------------|
6|-------------------|

1|------------------------|
2|-------5-3/53-3-2-0-2-3-|
3|------------------------|
4|-0-4--------------------|
5|------------------------|
6|------------------------|

Dm Gm Gm A Dm
По янь-волне плывет алмазная плацента
Gm Gm A Dm
Ты на мне я за тебя не дам и цента
Gm Gm A Dm
В ноябре танцуют самбу факин нацци
Gm Gm A Dm A#
В мартабре тебя достанут папараци пули
Dm A# C A# Dm
Крутят дули издеваются
Dm A# Dm A# Gm E A
И бутоном на ладони распускается

Припев:
D G A
А-а-а-а-а парабеллум
D G A
А-а-а-а-а парабеллум
D G A
А-а-а-а-а парабеллум
D G A
А-а-а-а-а-а-а

Dm Gm Gm A Dm
Пойди сорви поспело сердце в огороде
Gm Gm A Dm
Для любви ты одинок и ты свободен
Gm Gm A Dm
Ты ничей торчит молекула из пасти
Gm Gm A Dm A#
И вообще бурлит Урал как стратокастер птицы
Dm A# C A# Dm
Видят лица удивляются
Dm A# Dm A# Gm E A
Круглым глазом теплым газам улыбается

Припев:
D G A
А-а-а-а-а парабеллум
D G A
А-а-а-а-а парабеллум
D G A
А-а-а-а-а парабеллум
D G A
А-а-а-а-а-а-а
Другие песни: