CureMaybe Someday Текст, аккорды

0 Голосов
Maybe Someday


By the Cure
from the album 'bloodflowers'

transcribed by Christian Reindel(creindel@gmx.de)
any questions or corrections- e-mail me

Normal tuning (E,A,D,G,b,E)

Intro
Em C G D
E:|--0---------0--------0--------2-----------|
B:|--0---------1--------3--------3-----------|
G:|--0---------0--------0--------2-----------|
D:|--2---------2--------0--------0-----------|
A:|--2---------3--------2--------------------|
E:|--0------------------3--------------------|

Lead Guitar ( 2 times)
E:|-------------------------|--------------------------|
B:|-5-5-5--3------3-3-5--0--|--5-5-5--3-------3-5-3--0-|
G:|-------------------------|--------------------------|
D:|-------------------------|--------------------------|
A:|-------------------------|--------------------------|
E:|-------------------------|--------------------------|


Verse 1

Em C G D
No I won't do it again, I don't want to pretend
....

But maybe someday

Lead Guitar ( 2 times)
E:|-------------------------|--------------------------|
B:|-5-5-5--3------3-3-5--0--|--5-5-5--3-------3-5-3--0-|
G:|-------------------------|--------------------------|
D:|-------------------------|--------------------------|
A:|-------------------------|--------------------------|
E:|-------------------------|--------------------------|


Verse 2

Em C G D
I' ve got to let it go and leave it gone
...

But maybe some day

I'll see you smile as you call my name
Start to feel,and it feels the same
and I know that maybe someday's gone

E:|-0-------2--------3-----------0------------|
B:|-1-------3--------4-----------0------------|
G:|-0-------2--------3-----------0------------|
D:|-2-------0--------1-----------2------------|
A:|-3----------------------------2------------|
E:|------------------------------0------------|
C D Dis Em

(P.S. I don't know the right chord on Dis,
but Dis is right- I tried on Bass)

maybe someday's come ... again

E:|-0-----------|
B:|-1-----------|
G:|-0-----------|
D:|-2-----------|
A:|-3-----------|
E:|-------------|

Em C G D
So tell me someday's come

Piano-solo

Em C G D

Verse 3
Em C G D
No I won't do it some more, doesn't make sense
...

but maybe someday

I'll see you smile as you call my name
Start to feel,and it feels the same
and I know that maybe someday's come
E:|-0-------2--------3-----------0------------|
B:|-1-------3--------4-----------0------------|
G:|-0-------2--------3-----------0------------|
D:|-2-------0--------1-----------2------------|
A:|-3----------------------------2------------|
E:|------------------------------0------------|
C D Dis Em

maybe someday's come

E:|-0-----------|
B:|-1-----------|
G:|-0-----------|
D:|-2-----------|
A:|-3-----------|
E:|-------------|

If I could do it again - maybe just once more
Think I could make it work like I did it before
If I could try it out - If I could just be

E:|---------------2------------0-----------2------------|
B:|--2------------3------------1-----------3------------|
G:|--2------------4------------0-----------2------------|
D:|--2------------4------------2-----------0------------|
A:|--0------------2------------3------------------------|
E:|-----------------------------------------------------|
A B C D
sure
That maybe someday the is the last time
...
E:|--0-------------------------------------|--0---------|
B:|--1-------------------------------------|--0---------|
G:|--2-------------------------------------|--0---------|
D:|--3-------------------------------------|--2---------|
A:|--3-------------------------------------|--2---------|
E:|--1-------------------------------------|--0---------|
Fm Em
End.
Другие песни: