CrowbarNo Quarter Текст

0 Голосов
No quarter by CROWBAR

Album:Crowbar
Tabbed by Vladimir Hrdlik (Czech republic)
If you have some tablature (Crowbar,Pantera,Fear Factory i.e.) you can
E-mail it to me: XHRDLIK@PRF1.OSU.CZ


Main riff :
e------------------------------------------------------------------
b------------------------------------------------------------------
g------------------------------------------------------------------
D------------------------------------------------------------------
A--2--2--5--4--2--4--0--------2--2--5--4--2--4--0--2--4--4--5--4---
E--2--2-------------------0--2--2--2-------------------------------


Refrain:
e-----------------------------------------------------------------------
b-----------------------------------------------------------------------
g--------------------------------------------------------------2--7--4--
D--1--4--4--4--4--1--4--4--4--1--4--5--7--7--7--7--5--2--4--4-----------
A--0--2--2--2--2--0--2--2--2--0--2--5--7--7--7--7--5--------------------
E-----------------------------------------------------------------------


If you think it is wrong so you can tabbed it yourself.
Другие песни: