Crazy TownToxic Текст, аккорды

0 Голосов
Cool song :-)


guitar chorus
----------------------------------------------
----------------------------------------------
----------------------------------------------
-4-4-4-7-4-4-4-4-4-7-7-7-2-2-2-2-5------------
-4-4-4-7-4-4-4-4-4-7-7-7-2-2-2-2-5------------
-2-2-2-5-2-2-2-2-2-5-5-5-0-0-0-0-3------------
bass chorus
----------------------------------------------
----------------------------------------------
----------------------------------------------
-2-2-2-2-5-5-0-0------------------------------
bass
----------------------------------------------
----------------------------------------------
----------------------------------------------
-2-2-2-5-5-4-4-5-7----------------------------

1.shifty
2.epic

2.
catch a fire
fire it up
corrupt stirring it up
it's burning high
drifting hitting every slot
1.
with a dropkick
it's toxic
trouble like your girl in a mosh pit
i've lost it
and thats the only way that we rock shit
banging heads
and ripping threads
if i wasn't rocking shows
i'd be better off dead
with a one, two
2.
one word can destroy your whole crew
1.
and thats toxic
2.
thats toxic

1.
toxic
loud and obnoxious
2.
crazytown's toxic
1.
with that rock your block shit
toxic
popping more lip
we love to talk shit
2.
rocking your block
with that straight out the block shit
1.
toxic
loud n'obnoxious
2.
crazytown's toxic
1.
with that rock your block shit
toxic
popping more lip
we love to talk shit
2.
rocking your block
with that straight out the block shit
1.
toxic
a buddha ballistic
blacklisted twist of fait
my vocals fatal
as naughty block conconctions
rock your cradle
2.
i thought i'd wait
till the time it was right
to ignite
cause people like me
and we only come out at night
1.
i rock the mainline
and party with fine bitches
which is a dirty job
but somebodies gotta do it
so who's the crew with
more hos than vivids
lyrics explicit
2.
so fuck the critics
we leave them hanging
like INXS

1.
toxic
loud and obnoxious
2.
crazytown's toxic
1.
with that rock your block shit
toxic
popping more lip
we love to talk shit
2.
rocking your block
with that straight out the block shit
1.
toxic
loud n'obnoxious
2.
crazytown's toxic
1.
with that rock your block shit
toxic
popping more lip
we love to talk shit
2.
rocking your block
with that straight out the block shit
toxic

1.
toxic
thresholds of columbian gold
you can't roll
how we roll we possess youre soul
2.
and push the panic
1.
is it godly or satanic
2.
toxic or organic
manic minds refined or frantic
just the way we planned it
1.
see we be stomping
round the planet
2.
and we stand alone
we infiltrate your chromosome
no clone
our DNA has got a
strain of it's own
1.
and it's toxic

1.
toxic
loud and obnoxious
2.
crazytown's toxic
1.
with that rock your block shit
toxic
popping more lip
we love to talk shit
2.
rocking your block
with that straight out the block shit
1.
toxic
loud n'obnoxious
2.
crazytown's toxic
1.
with that rock your block shit
toxic
popping more lip
we love to talk shit
2.
rocking your block
with that straight out the block shit
1. and 2.
toxic
Другие песни: