CrassDo They Owe Us A Living Текст, аккорды

0 Голосов
-------------------------------------------------------------------------------

Do they owe us a living - Crass
-------------------------------------------------------------------------------
Tabbed by:Matt Herbert
Email:Matt_Herbert_15@msn.com

Tuning:standard

Verse
e|---------------------------------|
B|---------------------------------|
G|-----------6---------------------|
D|--6--------6---------------------|
A|--6--X10---4---------------------|
E|--4------------------------------|
This the same on every verse.

Chorus
e|---------------------------------|
B|---------------------------------|
G|-----------4-4----9-9-9--6-6-6---|
D|---6-------4-4----9-9-9--6-6-6---|
A|---6--X4---2-2----7-7-7--4-4-4---|
E|---4-----------------------------|

Thats it its pretty simple like most old punk style songs.
The verse is the same all the way through so is the chorus any way cheers.
Другие песни: