CranberriesZombie (btab) Текст

0 Голосов
Main Riff:
G|---------------------------------------------
D|---------------------------------------------
A|---------3333-5-3----------------------------
E|-00000000---------5-2-3333333-5-2222-5-2-5-2-

Middle:
G|---------------------------------------------
D|---------------------------------------------
A|---------3333-5-3----------------------------
E|-00000000---------5-2-3333333-5-2222-5-2-5-2-

Ending
G|---------------------------------------------
D|---------------------------------------------
A|---------3333-5-3----------------------------
E|-00000000---------5-2-3333333-5-2222-5-2-5-2-
Другие песни: