Cradle Of FilthTo Eve The Art Of Witchcraft Текст

0 Голосов
Tune down one whole step.

Riff 1
x 1
[-----------
-----------
-----------
-6-2-2-2-2-
-6-2-2-2-2-
-4-0-0-0-0-]

x 2
[-----------------------------------------------------------------
-----------------------------------------------------------------
-----------------------------------------------------------------
-3-3-3-3-3-3-6-6-2-2-2-2-2-2-6-6-3-3-3-3-3-3-6-6-2-2-2-2-2-2-2-2-
-3-3-3-3-3-3-6-6-2-2-2-2-2-2-6-6-3-3-3-3-3-3-6-6-2-2-2-2-2-2-2-2-
-1-1-1-1-1-1-4-4-0-0-0-0-0-0-4-4-1-1-1-1-1-1-4-4-0-0-0-0-0-0-0-0-]

Riff 2
x 2
[---------------------------------------------
---------------------------------------------
---------------------------------------------
-3-3-3---6---2-2-2---6---3-3-3---6---2-2-2-2-
-3-3-3---6---2-2-2---6---3-3-3---6---2-2-2-2-
-1-1-1---4---0-0-0---4---1-1-1---4---0-0-0-0-]

Riff 3
x 8
[---------------
---------------
---------------
-3-3-3-3-3-3-3-
-3-3-3-3-3-3-3-
-1-0-1-0-1-0-1-]

Riff 4
x 1
[------
------
------
-147-
------
------]

x 2
--------------------
--------------------
-7---10--12---13-14-
-7---10--12---13-14-
-5---8---10---11-12-
--------------------

Riff 5
x 1
[---
---
---
-2-
-2-
-0-]

x 4
[-------------------------------------
-------------------------------------
-------------------------------------
-------2---1-0-----------------------
-----2-----------2---3-2-0-----------
-0-------------------------4-1-1-1-1-]
^ ^ ^ ^

Riff 6
x 4
[-----------------------------------------
-----------------------------------------
-----------------------------------------
-2-----------6-2-2-2-3-----------6-3-3-3-
-2---2h3p2---6-2-2-2-3---2h3p2---6-3-3-3-
-0-----------4-0-0-0-1-----------4-1-1-1-]
^ ^ ^ ^ ^ ^ ^ ^

Riff 1
Riff 2
Riff 3

Riff 7
x 8
[------------------
------------------
------------------
-----9------------
-7-7-----7-10-9-8-
------------------]
x 1
[-----------------------------------------
-----------------------------------------
-----------------------------------------
-7-------------------5-------------------
-7-------------------5-------------------
-5-------------------3-------------------]

Riff 9 - Solo
[-----------------------------------------------------------
-5---5---------------------5-4---4------5-4-----------------
---------7-5-4-5--5--4h5h7-----7------------7-5-7-5-4-5-----
----------------------------------------------------------7-
------------------------------------------------------------
------------------------------------------------------------

----------------------------------------------------------
----------------------------------------------------------
-----------------------------5--5s7s5-5-----------5-4---4-
---4h5h7p5p4-------4h5h7p5p4----------------4h5h7-----7---
-7-----------7---7------------------------7---------------
----------------------------------------------------------]

Riff 8: "Oh, the fevered need for her..."
----------------------------------------------------
----------------------------------------------------
----------------------------------------------------
-9--x-x-9--x-x-9-x-9-9--%--5--x-x-5--x-x-5-x-5-5--%-
-7--x-x-7--x-x-7-x-7-7-----3--x-x-3--x-x-3-x-3-3----
-7--x-x-7--x-x-7-x-7-7-----3--x-x-3--x-x-3-x-3-3----
Другие песни: