Cradle Of FilthSummer Dying Fast Текст

0 Голосов
Tune down one whole step.

Riff 1
x 2
-----------------------------------------------------------------
-----------------------------------------------------------------
-----------------------------------------------------------------
-9---------------10--------------9---------------10------9-------
-----------------------------------------------------------------
-----------------------------------------------------------------

-----------------------------------------------------------------
-----------------------------------------------------------------
-----------------------------------------------------------------
-----------------------------------------------------------------
-7-7-7-7-7-7-7-7-7-7-7-7-7-7-7-7-6-6-6-6-6-6-6-6-6-6-6-6-6-6-6-6-
-----------------------------------------------------------------

-----------------------------------------------------------------
-----------------------------------------------------------------
-----------------------------------------------------------------
-9---------------10--------------9---------------7-------6-------
-----------------------------------------------------------------
-----------------------------------------------------------------

-----------------------------------------------------------------
-----------------------------------------------------------------
-----------------------------------------------------------------
-----------------------------------------------------------------
-5-5-5-5-5-5-5-5-5-5-5-5-5-5-5-5-4-4-4-4-4-4-4-4-4-4-4-4-4-4-4-4-
-----------------------------------------------------------------

Riff 2
x 8
[---------------------------------------------------------------------------
---------------------------------------------------------------------------
-----------------------------------------------9-9-9-9-10-10-10-10-9-9-9-9-
---------9-9-9-9-10-10-10-10-9-9-9-9---7-7-7-7-----------------------------
-7-7-7-7-------------------------------------------------------------------
---------------------------------------------------------------------------]

Riff 3
x 2
[-------
-------
-9---8-
-9---8-
-7---6-
-------]
x 1
[---
---
-9-
-9-
-7-
---]

Riff 4
x 2
[-----------------------------------------------------------------
-----------------------------------------------------------------
-9-9-9-9-9-9-9-9-9-9-9-9-9-9-9-9-8-8-8-8-8-8-8-8-8-8-8-8-8-8-8-8-
-9-9-9-9-9-9-9-9-9-9-9-9-9-9-9-9-8-8-8-8-8-8-8-8-8-8-8-8-8-8-8-8-
-7-7-7-7-7-7-7-7-7-7-7-7-7-7-7-7-6-6-6-6-6-6-6-6-6-6-6-6-6-6-6-6-
-----------------------------------------------------------------

-----------------------------------------------------------------
-----------------------------------------------------------------
-7-7-7-7-7-7-7-7-7-7-7-7-7-7-7-7-8-8-8-8-8-8-8-8-8-8-8-8-8-8-8-8-
-7-7-7-7-7-7-7-7-7-7-7-7-7-7-7-7-8-8-8-8-8-8-8-8-8-8-8-8-8-8-8-8-
-5-5-5-5-5-5-5-5-5-5-5-5-5-5-5-5-6-6-6-6-6-6-6-6-6-6-6-6-6-6-6-6-
-----------------------------------------------------------------]

Riff 2
Riff 4

Riff 5
x 10
[----------------------------------
----------------------------------
----------------------------------
-2---5-5---4---3---2--5-5---4---6-
-2---5-5---4---3---2--5-5---4---6-
-0---3-3---2---1---0--3-3---2---4-]

Riff 6 - Solo
x 1
[------------------------------------------------------------
-------------------------------------8-7-8/10---10-10-10b12-
---------------------------------9--------------------------
------------------------------------------------------------
-7--10-9---10-9-7---10-9-7---5------------------------------
------------------------------------------------------------

-10---------8-7----8---------------------------------------
----12-12-------10---10-8-10-8-7-8-7-----------------------
-------------------------------------9---9-----------------
-----------------------------------------------------------
---------------------------------------------10-9---10-9-7-
-----------------------------------------------------------

-----------------------------------------------------------
-----------------------------------------------------------
-----------------------------------------------------------
----------------------------------7------------------------
-5-------------------5-7-7---10-9--------------------------
-----8---7-8---7-8-----------------------------------------]
Другие песни: