Cradle Of FilthSleepless Текст

0 Голосов
from - Eric -976-EVIL 

Song: Sleepless (cover from Anathema)
Artist: Cradle of filth
Album: From the cradle to enslave

The chorus is missing, so if you find it, mail me!


Intro
G---|-------------------------------------------------------------------
D---|-------------------------------------------------------------------
A---|-------------------------------------------------------------------
E---|--5--5--5--5--5--0--3--1--0----------------------------------------


1st part of the main riff
G---||*-----------------------------------------------------------------
D---||*-----------------------------------------------------------------
A---||------2-----------------------------------------------------------
E---||---4-----0--3--5--5--5--5--5--5--4--5--5--5--5--5--5--4--4--4-----



G---------------------|-------------------------------------------------
D---------------------|-------------------------------------------------
A---------------------|-------------------------------------------------
E---4--4--0--3--1--0--|-------------------------------------------------


2nd part of the main riff
G-----------------------------------------------------------------------
D-----------------------------------------------------------------------
A------2----------------------------------------------------------------
E---4-----0--3--5--5--5--5--5--5--4--5--5--5--5--5--5--7--4--4--4--4----



G------------------*||
D------------------*||
A-------------------||
E---4--0--3--1--0---||




========================================================================
== TABLATURE ЕХРLАNАТIОN ==
========================================================================

---------- ---------- ----t---
----5h8--- Hammeron ----(8)--- Ghost ----6--- Tap
---------- ---------- Note --------
----5p8--- Pulloff ---------- --------

---------- ---------- -----p--
----5/8--- Slide Up -----x---- Dead -----7-- Pop
---------- ---------- Note --s-----
----58--- Slide Down ---------- --5----- Slap

---------- ||------|| Repeat --------
----5~~~-- Vibrato ||*----*|| ---5^--- Bend
---------- ||*----*|| --------
---------- ||------|| --------

---------- ---------- --------
-4:------- Time ---------- --------
-4:------- Signature ---------- --------
---------- ---------- --------

Rhythm:
w = whole note W = dotted whole
h = half note H = dotted half
q = quarter note Q = dotted quarter
e = eighth note E = dotted eighth
s = sixteenth note S = dotted sixteenth
t = 32nd note T = dotted 32nd
x = 64th note X = dotted 64th
^ = triplet

========================================================================
== Created with BUCKET О' TAB for Windows ==
== For more info email gse@his.com ==
========================================================================
Другие песни: