Cradle Of FilthIi Paradise Lost Better To Reign In Hell Текст

0 Голосов
Artist: Cradle Of Filth

Title: II. Paradise Lost: Better To Reign In Hell
Tabber: Luke Charman (luke@so.org)
Album: Damnation And A Day
Genre: Death Metal

This is just the way I play the Intro riff to this song in Dropped C tuning.

D|-----------------------------------------------|
A|-----------------------------------------------|
F|-----------------------------------------------|
C|--7---3-0---0-3-7-8-8---3-0---0-3-7-8-5---3-0--|
G|--7---3-0---0-3-7-8-8---3-0---0-3-7-8-5---3-0--|
C|--7---3-0---0-3-7-8-8---3-0---0-3-7-8-5---3-0--|

D|-----------------------------------------------|
A|-----------------------------------------------|
F|-----------------------------------------------|
C|--0-3-7-8--5-8-7-10--5-8-7-8-10-8-7-8----------|
G|--0-3-7-8--5-8-7-10--5-8-7-8-10-8-7-8----------|
C|--0-3-7-8--5-8-7-10--5-8-7-8-10-8-7-8----------|

---

Comments? Questions? Suggestions? luke@myigintion.com
Другие песни: