Cradle Of FilthDusk And Her Embracelive Текст

0 Голосов
I tabbed this song so as to match with the live version on the cradle of filth concert 

at nottingham.

Tuning: standard

Into:

----------------------------|
----------------------------|
----------------------------|
----------------------------|
--77777771010101010101099999
--5555555-8-8-8-8-8-8-877777

----------------------------|
----------------------------|
----------------------------|
----------------------------|
777777710101010101099999----|
5555555-8-8-8-8-8-877777----|

----------------------------|
----------------8v----------|
9-7-------9-7-9----9-7------|
-----10-7--------------10-7-|
----------------------------|
----------------------------|

----------------------------------------|
-------------------------8-10-12-12b-10-|
9-7-9-7--9-7------9-7-7-----------------|
-------------10-7-----------------------|
----------------------------------------|
----------------------------------------|

----------------------------|
----------------------------|
----------------------------|
----------------------------|
7777777710101010109999999---|
55555555-8-8-8-8-87777777---|

legend: v-virbrato
b-bend

well thats all i got for now ill come back when i figure out the rest. plz email
to metalman2k4@yahoo.com. remember to practice and just listen to the rythym of the song(this
take u a while its really fucking hard to move ur fingers around in this fashion).
Другие песни: