Cradle Of FilthBeneath The Depths Of Evil Текст

0 Голосов
Artist: Cradle of Filth

Song: Beneath the depths of evil

*The song is in dropped `D tuning.

Intro
|-----------------|
|-----------------|
|-----------------|
|-0--3-2-1-4-5-0--|
|-0--3-2-1-4-5-0--|
|-0--3-2-1-4-5-0--|

Verse
|-----------------|
|-----------------|
|-----------------|
|-----------------|
|---------7p6-----|
|-0-3-4h5-----3-2-|

Chorus
|-----------------------------|
|-----------------------------|
|-----------------------------|
|-0-2-3-0-6-5-0-4-0-4-0-4-1-1-|
|-0-2-3-0-6-5-0-4-0-4-0-4-1-1-|
|-0-2-3-0-6-5-0-4-0-4-0-4-1-1-|

and thats about it, its a great song so enjoy.
====
Другие песни: