Cradle Of FilthA Dream Of Wolves In The Snow Текст

0 Голосов
Gtr I (D G C F A D) - 'Untitled'

Gtr II (D G C F A D) - 'Untitled'
Gtr III (D G C F A D) - 'Untitled'
Gtr IV (D G C F A D) - 'Untitled'
Gtr V (D G C F A D) - 'Untitled'

Inтrо
Slоw Gотнiс Metal Q=65
E5
4/4
Gtr V
S S S S S S S S S S S S S S S S
||----------------------------------------------|
||о---11-12-11---11-12-11---11-12-11---11-12-11-|
||--9----------9----------9----------9----------|
||----------------------------------------------|
||о---------------------------------------------|
||----------------------------------------------|
|
| Gtr II
| W
||----------------------------------------------|
||о---------------------------------------------|
||----------------------------------------------|
||--2-------------------------------------------|
||о-2-------------------------------------------|
||--0-------------------------------------------|


Bb5/F
S S S S S S S S S S S S S S S S
|-------------------------------------------------|
|----12-13-12----12-13-12----12-13-12----12-13-12-|
|-10----------10----------10----------10----------|
|-------------------------------------------------|
|-------------------------------------------------|
|-------------------------------------------------|
|
| W
|-------------------------------------------------|
|-------------------------------------------------|
|-------------------------------------------------|
|--3----------------------------------------------|
|--1----------------------------------------------|
|--1----------------------------------------------|


E5
4/4
S S S S S S S S S S S S S S S S
|---------------------------------------------|
|---11-12-11---11-12-11---11-12-11---11-12-11-|
|-9----------9----------9----------9----------|
|---------------------------------------------|
|---------------------------------------------|
|---------------------------------------------|
|
| W
|---------------------------------------------|
|---------------------------------------------|
|---------------------------------------------|
|-2-------------------------------------------|
|-2-------------------------------------------|
|-0-------------------------------------------|


D#5/Bb
S S S S S S S S S S S S S S S S
|-----------------------------------------------||
|---10-11-10---10-11-10---10-11-10---10-11-10--о||
|-8----------8----------8----------8------------||
|-----------------------------------------------||
|----------------------------------------------о||
|-----------------------------------------------||
|
| W
|-----------------------------------------------||
|----------------------------------------------о||
|-3---------------------------------------------||
|-1---------------------------------------------||
|-1--------------------------------------------о||
|-----------------------------------------------||


Q=60
Gtr IV
S S S S S S S S S S S S S S S S
||-----------------------------------------||
||о---------------------------------------о||
||----9-7----------------9-7---------------||
||--7-----10-9-10-9-10-7-----10-9-10-9-10--||
||о---------------------------------------о||
||-----------------------------------------||
|
| Gtr II
| W
||-----------------------------------------||
||о---------------------------------------о||
||-----------------------------------------||
||-----------------------------------------||
||о---------------------------------------о||
||-----------------------------------------||


Verse
A5 G5
Gtr I
S S S S S S S S S S S S S S S S
|-||----------------------------------|
|-||о---------------------------------|
|-||----------------------------------|
|-||----------------------------------|
|-||о---7-5-------------7-5-----------|
|-||--5-----8-7-8-7-8-5-----8-7-8-7-8-|
|
| Gtr II
| H H
|-||----------------------------------|
|-||о---------------------------------|
|-||----------------------------------|
|-||----------------------------------|
|-||о-7---------------5---------------|
|-||--5---------------3---------------|


Interlude
F5 D5 G5 A5 G5 F5 D5 C5B5
Gtr V
S S S S S S S S S S S S S S S S 4x W H E E E E
|----------------------------------||-----------|----------------|
|---------------------------------о||-----------|----------------|
|----------------------------------||-----------|--------9-7-----|
|----------------------------------||-----------|------------10--|
|---7-5-------------7-5-----------о||-----------|----------------|
|-5-----8-7-8-7-8-5-----8-7-8-7-8--||-----------|----------------|
|
| Gtr II
| H Q Q 4x H H H Q E E
|----------------------------------||-----------|----------------|
|---------------------------------о||-----------|----------------|
|----------------------------------||-----------|----------------|
|-----------------7----------------||-----------|------7---5--4--|
|-3---------------5-------5-------о||-7----5----|-3----5---3--2--|
|-1-----------------------3--------||-5----3----|-1--------------|


A5 G5 F5 D5
Q. E Q. E E E E E H
|---------------|------------------------|
|---------------|------------------------|
|---------------|------------------------|
|-9----9-7----9-|-10-9-7----7------------|
|---------------|--------10--------------|
|---------------|------------------------|
|
| H H H E. S S S S S
|---------------|------------------------|
|---------------|------------------------|
|---------------|------------------------|
|---------------|-----------7------------|
|-7------5------|--3--------5------------|
|-5------3------|--1-----------8-7-8-7-8-|


A5 G5 F5 D5
E E Q E E Q E E E E H
|-----------------|-----------------------|
|-----------------|-----------------------|
|-9-7-----10-9-7--|-9-7-------------------|
|-----10----------|-----10-9-7------------|
|-----------------|-----------------------|
|-----------------|-----------------------|
|
| H H H E. S S S S S
|-----------------|-----------------------|
|-----------------|-----------------------|
|-----------------|-----------------------|
|-----------------|----------7------------|
|-7--------5------|-3--------5------------|
|-5--------3------|-1-----------8-7-8-7-8-|


Оuтrо
A5 G5
Gtr I
S S S S S S S S S S S S S S S S
||----------------------------------|
||о---------------------------------|
||----------------------------------|
||----------------------------------|
||о---7-5-------------7-5-----------|
||--5-----8-7-8-7-8-5-----8-7-8-7-8-|
|
| Gtr II
| H H
||----------------------------------|
||о---------------------------------|
||----------------------------------|
||----------------------------------|
||о-7---------------5---------------|
||--5---------------3---------------|


F5 D5 G5 A5
S S S S S S S S S S S S S S S S 4x W +W
|----------------------------------||----------|--------*|
|---------------------------------о||----------|--------*|
|----------------------------------||----------|--------*|
|----------------------------------||----------|--------*|
|---7-5-------------7-5-----------о||-7--------|-(7)----*|
|-5-----8-7-8-7-8-5-----8-7-8-7-8--||-5--------|-(5)----*|
|
| H Q Q 4x W +W
|----------------------------------||----------|--------*|
|---------------------------------о||----------|--------*|
|----------------------------------||----------|--------*|
|-----------------7----------------||----------|--------*|
|-3---------------5-------5-------о||-7--------|-(7)----*|
|-1-----------------------3--------||-5--------|-(5)----*|
Другие песни: