Cradle Of FilthA Crescendo of Passion Bleeding Текст

0 Голосов
Tune all strings down one full step

Riff 1(tremolo pick all):"Spells lay daggers before me..."
[------------------------------------
------------------------------------
------------------------------------
--9---109-10/12--10---10/12-10/12--
--7----87--8/10---8----8/10--8/10--
------------------------------------]

Fill 1:
[------------------------------------
------------------------------------
------------------------------------
--2---------------------------------
--2---------------------------------
--0---------------------------------]

Riff 2 (Natural Harmonics, listen to the song):
[------------------------------------
------------------------------------
------------------------------------
------------------------------------
-/8---/8---/8-----------------------
-/6-0-/6-0-/6---(3/73)------------]

Fill 2 (Listen to the song for the rhythm):
[------------------------------------
------------------------------------
------------------------------------
------------------------------------
--2------2--------------------------
--0------0--------------------------]

Riff 3a (tremolo pick all):
[------------------------------------
------------------------------------
------------------------------------
------------------------------------
------------------------------------
--0---3/7---31---3/7/875---------]

Riff 3b (tremolo pick all):
[------------------------------------
------------------------------------
------------------------------------
------------------------------------
--0---3/7---31---3/7/875---------
------------------------------------]

Fill 3:
[------------------------------------
------------------------------------
------------------------------------
------------------------------------
--8---985/7--3--------------------
--6---763/5--1--------------------]

Riff 4 (tremolo pick all): "А Black Age of Fire..."
[-------------------------------------------------------
---------------14----------------------11113-----------
------13-14-13----13-14-13----12-13-12-------12-13-12--
--11-----------------------10--------------------------
-------------------------------------------------------
-------------------------------------------------------]

Riff 5 (Listen to the song for how to play this one):
[-------------------------------------------------------
-------------------------------------------------------
-------------------------------------------------------
--6--4--2-----2--6--8--9-11--14--13--------------------
--4--2--0--6--0--4--6--7--9--12--11--------------------
-----------4-------------------------------------------]

Riff 6: "The blood is the life"
[--------------------------------------------
--------------------------------------------
--------------------------------------------
--------------------------------------------
--2--2-2-3-3-2--5432--3-3----5---3----------
--0--0-0-1-1-0--321-------------------------]
Другие песни: