Collective SoulTurn Around Текст, аккорды

0 Голосов
Music: Collective Soul

Album: Blender
Transcribed By: Adrian MC deanroland17


1 2 3 4
---3----3----2----3 1-----| G9
---3----3----3----3 2-----| C9
---0----0----2----0 3-----| D
---0----2----0----0 4: D~-|
---2----3------------------------------|
---3----0------------------------------|

Intro:
Guitar1
G9, C9, G9, C9

Guitar2 G G
--15--12--10--12-----3------------3----------|
---------------------3------------3----------|
---------------------4------------4----------|
---------------------5------------5----------|
---------------------5------------5----------|
---------------------3------------3----------|

Verse 1:

G9 C9
There floats our conversation
G9 C9
like clouds in our minds
G9 C9
We leave an open invitation
G9 C9
To this world we've denied

Chorus:

G9 D C9
If i turn around
G9 D D~ C9
Would that be my fault

-------------------------------------------|
-------------------------------------------|
--7--11--12~~~~----------------------------|
-------------------------------------------|
-------------------------------------------|
-------------------------------------------|

G9 D C9
If i turn around
G9 D D~ C9
Would that be my loss

-------------------------------------------|
-------------------------------------------|
---7--11--12~~~~---------------------------|
-------------------------------------------|
-------------------------------------------|
-------------------------------------------|


Verse 2:
G9 C9
Feel the raindrops of impression
G9 C9
stinging from above

---10/11/12/13/14/15-15~-----x2------------|
-------------------------------------------|
-------------------------------------------|
-------------------------------------------|
-------------------------------------------|
-------------------------------------------|

G9 C9
What's the price of this confesion
G9 C9
we have yet to speak of

---10/11/12/13/14/15-15~-----x2----------|
-----------------------------------------|
-----------------------------------------|
-----------------------------------------|
-----------------------------------------|
-----------------------------------------|

Chorus
Same as first but with this little diference listen the song to get iit
tapping
G
--3--x-x-x-x-x--------------------------------|
--3--x-x-x-x-x--------------------------------|
--4--x-x-x-x-x--------------------------------|
--5--x-x-x-x-x--------------------------------|
--5--x-x-x-x-x--------------------------------|
--3--x-x-x-x-x--------------------------------|

Bridge:

G9 G9 G9 G9
Out of site beyond confusion
C9 C9 C9 C9
still i'm here defining my own truth

-------3--------3--------------------------|
-----3--------3----------------------------|
---5--------5------------------------------|
-5--------5--------------------------------|
-------------------------------------------|
-------------------------------------------|

G9 C9

G9 G9 G9 G9
paranoia by conclusion
C9 C9 C9 C9
what's the point if i'm still missing you

-------3--------3--------------------------|
-----3--------3----------------------------|
---5--------5------------------------------|
-5--------5--------------------------------|
-------------------------------------------|
-------------------------------------------|

Solo: The chords are de same G9 . C9

------------------------------------------------------------------|
-------------------------------------------17---------------------|
16/14/12--12/14/16-16----16h17---17--16/14-----19-19--------------|
----------------------17------------------------------------------|
------------------------------------------------------------------|
------------------------------------------------------------------|

------------------------------------------------------------------|
------------------------------------------------------------------|
------------hb16-16------------hb16-16h17------19~~~~-------------|
--17--19-19----------17--19-19-------------17---------------------|
------------------------------------------------------------------|
------------------------------------------------------------------|

Chorus with out guitar but with this riffs

If i turn around
Would that be my fault
------------------------------------------------------------------|
------------------------------------------------------------------|
--10/12--12-14-12-14-12---12/14-----------------------------------|
------------------------------------------------------------------|
------------------------------------------------------------------|
------------------------------------------------------------------|

If i turn around
Would that be my loss

------------------------------------------------------------------|
------------------------------------------------------------------|
-12h14-14-12-14-12-14-12~~~---------------------------------------|
------------------------------------------------------------------|
------------------------------------------------------------------|
------------------------------------------------------------------|

Chorus Same as first

Well i hope this can be useful.... please send me any comments deanroland@hotmail.com
Другие песни: