Cole Lloyd2cv Текст

0 Голосов
#----------------------------------PLEASE NOTE---------------------------------#

#This file is the author's own work and represents their interpretation of the #
#song. You may only use this file for private study, scholarship, or research. #
#------------------------------------------------------------------------------##

X-Mailer: cppnews $Revision: 1.36 $
Date: Tue, 20 Jul 93 11:12:36 GMT
Organization: Long Long Long
Lines: 201


Title: 2cv
Artist: Lloyd Cole and the Commotions
Album: Rattlesnakes
Writer: Lloyd Cole
Trans: rick@maya.demon.co.uk (Rich Tebb)


Capo 5th fret

Intro
=====

G C D C D G C D C D
e|--------------------------------|--------------------------------|
B|--------------------------------|--------------------------------|
G|--------0-----------------------|--------0-----------------------|
D|----------------2s--4s--2---0---|----------------2s--4s--2---0---| x 2
A|----2-------0---3s--5s--3-------|----2-------0---3s--5s--3-------|
E|3-------------------------------|3-------------------------------|
^ ^ ^ ^ ^ ^ ^ ^

Verse 1
=======

G C D C D G C D C D
e|--------------------------------|--------------------------------|
B|--------------------------------|--------------------------------|
G|--------0-----------------------|--------0-----------------------|
D|----------------2s--4s--2---0---|----------------2s--4s--2---0---|
A|----2-------0---3s--5s--3-------|----2-------0---3s--5s--3-------|
E|3-------------------------------|3-------------------------------|
^ ^ ^ ^ ^ ^ ^ ^
She drove her mother's car 'twas a deux che- vaux

G C D C D G C D C D
e|--------------------------------|--------------------------------|
B|--------------------------------|--------------------------------|
G|--------0-----------------------|--------0-----------------------|
D|----------------2s--4s--2---0---|----------------2s--4s--2---0---|
A|----2-------0---3s--5s--3-------|----2-------0---3s--5s--3-------|
E|3-------------------------------|3-------------------------------|
^ ^ ^ ^ ^ ^ ^ ^
I was most im- pressed by her casual dress


Em C
e|--------------------------------|--------------------------------|
B|--------------------------------|--------------------------------|
G|--------0-----------0-----------|----0-----------0---------------|
D|----------------0H2-----0-------|--------2-H-3-------3---2---0---|
A|----2-------2---------------0---|3-------------------------------|
E|0-------------------------------|--------------------------------|
^ ^ ^ ^ ^ ^ ^ ^
I was


G C D C D G C D C D
e|--------------------------------|--------------------------------|
B|--------------------------------|--------------------------------|
G|--------0-----------------------|--------0-----------------------|
D|----------------2s--4s--2---0---|----------------2s--4s--2---0---|
A|----2-------0---3s--5s--3-------|----2-------0---3s--5s--3-------|
E|3-------------------------------|3-------------------------------|
^ ^ ^ ^ ^ ^ ^ ^
most impressed


G C D C D G C D C D
e|--------------------------------|--------------------------------|
B|--------------------------------|--------------------------------|
G|--------0-----------------------|--------0-----------------------|
D|----------------2s--4s--2---0---|----------------2s--4s--2---0---|
A|----2-------0---3s--5s--3-------|----2-------0---3s--5s--3-------|
E|3-------------------------------|3-------------------------------|
^ ^ ^ ^ ^ ^ ^ ^
Inside a rented room coloured deepest blue


G C D C D G C D C D
e|--------------------------------|--------------------------------|
B|--------------------------------|--------------------------------|
G|--------0-----------------------|--------0-----------------------|
D|----------------2s--4s--2---0---|----------------2s--4s--2---0---|
A|----2-------0---3s--5s--3-------|----2-------0---3s--5s--3-------|
E|3-------------------------------|3-------------------------------|
^ ^ ^ ^ ^ ^ ^ ^
I suppose we found some kind of happiness


Em C
e|--------------------------------|--------------------------------|
B|--------------------------------|--------------------------------|
G|--------0-----------0-----------|----0-----------0---------------|
D|----------------0H2-----0-------|--------2-H-3-------3---2---0---|
A|----2-------2---------------0---|3-------------------------------|
E|0-------------------------------|--------------------------------|
^ ^ ^ ^ ^ ^ ^ ^
to fill the


G C D C D G C D C D
e|--------------------------------|--------------------------------|
B|--------------------------------|--------------------------------|
G|--------0-----------------------|--------0-----------------------|
D|----------------2s--4s--2---0---|----------------2s--4s--2---0---|
A|----2-------0---3s--5s--3-------|----2-------0---3s--5s--3-------|
E|3-------------------------------|3-------------------------------|
^ ^ ^ ^ ^ ^ ^ ^
emptiness


C C
e|--------------------------------|--------------------------------|
B|--------------------1-----------|--------------------1-----------|
G|----0-----------------------0---|----0-----------------------0---|
D|--------2-------2-------2-------|--------2-------2-------2-------|
A|3-----------3-------------------|3-----------3-------------------|
E|--------------------------------|--------------------------------|
^ ^ ^ ^ ^ ^ ^ ^
we were sim- ply was- ting pre- cious


G C D C D G C D C D
e|--------------------------------|--------------------------------|
B|--------------------------------|--------------------------------|
G|--------0-----------------------|--------0-----------------------|
D|----------------2s--4s--2---0---|----------------2s--4s--2---0---|
A|----2-------0---3s--5s--3-------|----2-------0---3s--5s--3-------|
E|3-------------------------------|3-------------------------------|
^ ^ ^ ^ ^ ^ ^ ^

time

D C
e|----------------2---------------|--------------------------------|
B|------------------------3-------|----------------1---------------|
G|--------2-----------2-----------|--------0-----------0-------0---|
D|----0-------0---------------0---|----2-------2-----------2-------|
A|0-------------------------------|3-------------------------------|
E|--------------------------------|--------------------------------|
^ ^ ^ ^ ^ ^ ^ ^
Hi- ding from the cruel- lest sum- mer

G C D C D G C D C D
e|--------------------------------|--------------------------------|
B|--------------------------------|--------------------------------|
G|--------0-----------------------|--------0-----------------------|
D|----------------2s--4s--2---0---|----------------2s--4s--2---0---|
A|----2-------0---3s--5s--3-------|----2-------0---3s--5s--3-------|
E|3-------------------------------|3-------------------------------|
^ ^ ^ ^ ^ ^ ^ ^
sky

Verse 2
=======

She took her mother's car to get away from me
Heaven knows that I, I can sympathize
Oh I can sympathize
For we were never close if the truth were told
All we ever shared was a taste in clothes
Oh we were never close
We were simply losing everything
Underneath the cruellest London sun

Outro
=====

Fmaj7 C
e|----0---------------------------|----0---------------------------|
B|--------1-------0-------1-------|--------1-------0-------1-------|
G|------------2-------2-------0---|------------0-------0-------0---|
D|3-------------------------------|2-------------------------------|
A|--------------------------------|--------------------------------|
E|--------------------------------|--------------------------------|
^ ^ ^ ^ ^ ^ ^ ^
We were sim- ply was- ting pre- cious

Fmaj7 C
e|----0---------------------------|----0---------------------------|
B|--------1-------0-------1-------|--------1-------0-------1-------|
G|------------2-------2-------0---|------------0-------0-------0---|
D|3-------------------------------|2-------------------------------|
A|--------------------------------|--------------------------------|
E|--------------------------------|--------------------------------|
^ ^ ^ ^ ^ ^ ^ ^
time

[repeat to end]

--
black rick

rick@maya.demon.co.uk
Другие песни: