ColdEnd Of The World Текст

0 Голосов
Verse (tap these notes)

------------------------------------------12---------------
------(13)--(13)-(13)---------------------12---------------
------------------------------------------10---------------
-----------------------------------------------------------
-----------------------------------------------------------
-----------------------------------------------------------

Chorus
-----------------------------------------------------------
-----------------------------------------------------------
-----------------------------------------------------------
-----------------------------------------------------------
--7-(12 times)---10-(12 times)---3-(12 times)---2-(12 times
--5--------------8---------------1--------------0----------

-----------------------------------------------------------
--7---9--10--7---9--10--7---9--10--12--10--9---------------
-----------------------------------------------------------
-----------------------------------------------------------
-----------------------------------------------------------
-----------------------------------------------------------


Piano Part
--0---2--3--0---2--3------2--3---5--3--2-------------------
----------------------2------------------------------------
-----------------------------------------------------------
-----------------------------------------------------------
-----------------------------------------------------------
-----------------------------------------------------------

Skitzabich666
-also tabd No One 7 and Makes Her Sick
Другие песни: