Clint MansellRequiem for a Dream Текст

0 Голосов
Intro:
E|-----------------------|-----------------------|
B|-----------------------|-----------------------|
G|-2-----2-----2-----2---|-----------------------| x2
D|-----------------------|-3-----3-----2-----2---|
A|-0-----0-----0-----0---|-----------------------|
E|-----------------------|-1-----1-----0-----0---|

Bridge:
E|-----------------------|-----------------------|
B|-1p0---------1p0-------|-1p0---------3p1---0h1-|
G|-------2-----------2---|-------2---------------| x2
D|---------2-----------2-|---------2-------------|
A|-0-----0-----0-----0---|-----------------------|
E|-----------------------|-1-----1-----0-----0---|

Part 1:
E|-----------------------|-------------------------|
B|-1---------1-1---------|1-1---------1-1--1--1--1-|
G|--2---------2-2--------|-2-2---------2-2--2--2--2|
D|-----------------------|-------------------------|
A|-0-----0-----0-----0---|-------------------------|
E|-----------------------|--1-----1-----0-----0----|

Part 2:
E|-----------------------|-------------------------|
B|-1p0-1--1p0--1p0-1--1p0|--1p0-1---1p0-1p000-1p000|
G|-----------------------|-------------------------|
D|-----------------------|-------------------------|
A|-0-----0-----0-----0---|-------------------------|
E|-----------------------|--1-----1-----0-----0----|

Part 1:
E|-----------------------|-------------------------|
B|-1---------1-1---------|1-1---------1-1--1--1--1-|
G|--2---------2-2--------|-2-2---------2-2--2--2--2|
D|-----------------------|-------------------------|
A|-0-----0-----0-----0---|-------------------------|
E|-----------------------|--1-----1-----0-----0----|

Part 2:
E|-----------------------|-------------------------|
B|-1p0-1--1p0--1p0-1--1p0|--1p0-1---1p0-1p000-1p000|
G|-----------------------|-------------------------|
D|-----------------------|-------------------------|
A|-0-----0-----0-----0---|-------------------------|
E|-----------------------|--1-----1-----0-----0----|

Chorus:
E|-----------------------|---------------------------|
B|-1p00---1-1--1p00---1-1|-1p00---------0-0-0-0-1-1-1|
G|-----2-2---------2-2---|-----2-2-2-2-2-------------| x2
D|-----------------------|---------------------------|
A|-0-----0-----0-----0---|---------------------------|
E|-----------------------|-1-----1-----0------0------|

Bridge:
E|-----------------------|-----------------------|
B|-1p0---------1p0-------|-1p0---------3p1---0h1-|
G|-------2-----------2---|-------2---------------| x2
D|---------2-----------2-|---------2-------------|
A|-0-----0-----0-----0---|-----------------------|
E|-----------------------|-1-----1-----0-----0---|

Part 1:
E|-----------------------|-------------------------|
B|-1---------1-1---------|1-1---------1-1--1--1--1-|
G|--2---------2-2--------|-2-2---------2-2--2--2--2|
D|-----------------------|-------------------------|
A|-0-----0-----0-----0---|-------------------------|
E|-----------------------|--1-----1-----0-----0----|

Part 2:
E|-----------------------|-------------------------|
B|-1p0-1--1p0--1p0-1--1p0|--1p0-1---1p0-1p000-1p000|
G|-----------------------|-------------------------|
D|-----------------------|-------------------------|
A|-0-----0-----0-----0---|-------------------------|
E|-----------------------|--1-----1-----0-----0----|

Part 1:
E|-----------------------|-------------------------|
B|-1---------1-1---------|1-1---------1-1--1--1--1-|
G|--2---------2-2--------|-2-2---------2-2--2--2--2|
D|-----------------------|-------------------------|
A|-0-----0-----0-----0---|-------------------------|
E|-----------------------|--1-----1-----0-----0----|

Part 2: (slowing down)
E|-----------------------|-------------------------|
B|-1p0-1--1p0--1p0-1--1p0|--1p0-1---1p0-1p000-1p000|
G|-----------------------|-------------------------|
D|-----------------------|-------------------------|
A|-0-----0-----0-----0---|-------------------------|
E|-----------------------|--1-----1-----0-----0----|

Ending: (slow)
E|-----------------------|
B|-1p0---------1p0-------|
G|-------2-----------2---| x2
D|---------2-----------2-|
A|-0-----0-----0-----0---|
E|-----------------------|

E|------0-|
B|-----1--|
G|----2---|
D|---2----|
A|--0-----|
E|-0------|
Другие песни: