CkyForeign Objects 10 Текст

0 Голосов
CKY - Forign objects #10

Foreign Objects #10
Tuning:standard

-----------------------------------------------------------------------------
Envelope filtered Intro on these chords with a lot of palm-muting ect

-----------------------------------------------------
------------------------------------------------------
---7-7--7--7-7-7--7--7-7--7--7--7----7-7-7--7--7-7--6
---6-6--6--6-6-6--6--6-6--6--6--6----6-6-6--6--6-6--5
---5-5--5--5-5-5--5--5-5--5--5--5----5-5-5--5--5-5--4
---4-4--4--4-4-4--4--4-4--4--4--4----4-4-4--4--4-4--3 x4
PM . . . . . . . . . . . . .

go crazy with that then end like:

--------------------------------
--------------------------------
---7-7--7--7-7-7--7-7--7-7-7----
---6-6--6--6-6-6--6-6--6-6-6---
---5-5--5--5-5-5--5-5--5-5-5---
---4-4--4--4-4-4--4-4--4-4-4---
PM . . . . . . . . .

Main
---------------------------------------------
---------------------------------------------
-----------5---------------------------------
-7-----5-7----7---5---3-5---3---3/5--5---3/5-
-5--------------------------3--------3-------
----------------------------1----------------
x2 then

---------------------------------------------
---------------------------------------------
---------------------------------------------
-7---------3------5---3-5---3---3/5--5---3/5-
-5-----3-5----5-------------3--------3-------
----------------------------1----------------

-------------------------------------------------
-------------------------------------------------
-----------5-------------------------------------
-7-----5-7----7---5---3-5---3---3/5--5---3/5-----
-5--------------------------3--------3---------3-
----------------------------1--------------------

Pre-Chorus

-----------------------------------
-----------------------------------
-----------------------------------
-----5-7---5-----------------------
---5-----------8---7---5---5-5-7---
-6-------6---6---6---6---6-------6-
_______________________________/ Palm Mute

-----------------------------------
-----------------------------------
-------7---5-----------------------
-----5---------8---7---5---5-5-7---
---5-------------------------------
-5-------5---5---5---5---5-------5-
_______________________________/ Palm Mute

Play twice, then play once without palm mute.
Start to play a last time with PM but change the second part to


-----------------------------------
-----------------------------------
-----------------------------------
-----5-7---5-----------------------
---5-----------8---7---5---5-5-7---
-5-------5---5---5---5---5-------5-
_______________________________/ Palm Mute

Chorus

F5 Bb5 C5 A5 Bb5 F5 F5/D C5
---------------------------------------------------------------
---------------------------------------------------------------
---------------------------------------------------------------
-3-----3-8-----8-10---10-7-----7-8-----8-10---10-10---10-10----
-3-----3-8-----8-10---10-7-----7-8-----8-8-----8-8-----8-10----
-1-----1-6-----6-8-----8-5-----5-6-----6-8-----8-10---10-8-----

Play 3 times

Main
---------------------------------------------
---------------------------------------------
-----------5---------------------------------
-7-----5-7----7---5---3-5---3---3/5--5---3/5-
-5--------------------------3--------3-------
----------------------------1----------------
x3 then:

---------------------------------------------
---------------------------------------------
---------------------------------------------
-7---------3------5---3-5---3---3/5--5---3/5-
-5-----3-5----5-------------3--------3-------
----------------------------1----------------

Pre-Chorus

Chorus

Intro Riff

Bridge - tremolo picking w/ wah

-----------------------------------------------------------------
-----------------------------------------------------------------
-----------------------------------------------------------------
-----------------------------------------------------------------
-5-5-5-5-5-5---------------------12-12-12-12-8-8-8-8-8-8-8-8-8-8-
-------------6-6-6-6-6-6-6-6-6-6---------------------------------

-----------------------------------------------------------------
-----------------------------------------------------------------
-----------------10-------------------------------12-------------
-------------8-8----8-8-8-8-8----------------10-10--10-10-10-10--
-10-10-10-10------------------12-12-12-12-12-------------------12
-----------------------------------------------------------------
x4

then play Chorus x4

End on a D5
By Ande Hippler
Другие песни: