Chuck BerryMy Ding A Ling Текст

0 Голосов
Intro (between verses and their subsequent choruses)
G F
E|-3----3----3----3--1-1-|
B|-----------------------|
G|---5----5----5---------|
D|---5----5----5---------|
A|-----------------------|
E|-----------------------|

Verse
G C D G F
E|-3----3------------------------3---3--1-1-|
B|-----------3----3----5----5---------------|
G|---5----5------------------------5--------|
D|---5----5----5----5----7----7----5--------|
A|-------------5----5----7----7-------------|
E|------------------------------------------|

G C D G F F
When I was a little bitty boy,
my grandmother bought me a cute little toy.
G C D G G G G G
Silver bells hanging on a string,
she told me it was my ding-a-ling-a-ling!

Chorus
Strum on eights.

G C D G
My ding-a-ling, everybody sing,
I wanna play with my ding-a-ling!

G C D G Back to Intro

My ding-a-ling, my ding-a-ling,
I wanna play with my ding-a-ling-a-ling!

End the song on a G
Другие песни: