Chuck BerryMaybellene Текст

0 Голосов
Gtr I
E|-------------|------------|-------------||----------------|
B|-------------|-6--6-------|-6----6----6-||о----3-----3--о-|
G|----------3--|-5--5----3--|-5----5----5-||-----3-----3----|
D|----3h=5-----|------------|-------------||-----3-----3----|
A|-------------|------------|-------------||о-1-----------о-|
E|-------------|------------|-------------||--------1-------|

Pre-Verse
Eb Bb
E||---------------||------------|------------||----------------|
B||о----3-----3--о||----8-----8-|----8-----8-||о----3-----3--о-|
G||-----3-----3---||----8-----8-|----8-----8-||-----3-----3----|
D||-----3-----3---||----8-----8-|----8-----8-||-----3-----3----|
A||о-1-----------о||-6----------|-6----------||о-1-----------о-|
E||--------1------||-------6----|-------6----||--------1-------|

F Bb
E|-------------|-------------|-------------|------------|
B|-------------|-------------|----3-----3--|----3-----3-|
G|----2-----2--|----2-----2--|----3-----3--|----3-----3-|
D|----3-----3--|----3-----3--|----3-----3--|----3-----3-|
A|----3--3--3--|----3--3--3--|-1-----------|-1----------|
E|-1-----------|-1-----------|-------1-----|-------1----|

Verses
Bb
E||--------------|-------------|-------------|---------------|
B||о----3-----3--|----3-----3--|----3-----3--|----3-----3--о-|
G||-----3-----3--|----3-----3--|----3-----3--|----3-----3----|
D||-----3-----3--|----3-----3--|----3-----3--|----3-----3----|
A||о-1-----------|-1-----------|-1-----------|-1-----------о-|
E||--------1-----|-------1-----|-------1-----|-------1-------|

Сноrus
Bb Eb Bb
E||---------------||------------|------------||----------------|
B||о----3-----3--о||----8-----8-|----8-----8-||о----3-----3--о-|
G||-----3-----3---||----8-----8-|----8-----8-||-----3-----3----|
D||-----3-----3---||----8-----8-|----8-----8-||-----3-----3----|
A||о-1-----------о||-6----------|-6----------||о-1-----------о-|
E||--------1------||-------6----|-------6----||--------1-------|

То Соdа-|
То Dоuвlе Соdа-|
F Bb
E|-------------|-------------|-------------|------------|
B|-------------|-------------|----3-----3--|----3-----3-|
G|----2-----2--|----2-----2--|----3-----3--|----3-----3-|
D|----3-----3--|----3-----3--|----3-----3--|----3-----3-|
A|----3--3--3--|----3--3--3--|-1-----------|-1----------|
E|-1-----------|-1-----------|-------1-----|-------1----|

Guitar Sоlо
Bb
E|--------------------||---------------------------------------|
B|-----------------6--||------------6------------------------6-|
G|-8b10==(8)-(8)r-----||-9b10==(9)r----9b10==(9)r-9b10==(9)r---|
D|--------------------||---------------------------------------|
A|--------------------||---------------------------------------|
E|--------------------||---------------------------------------|

E|----------------------|--------------------------------------|
B|-(6)-6-6------------6-|------------6-----------------------6-|
G|---------9b10==(9)r---|-9b10==(9)r---9b10==(9)r-9b10==(9)r---|
D|----------------------|--------------------------------------|
A|----------------------|--------------------------------------|
E|----------------------|--------------------------------------|

Eb
E|----------------------|--------------------------------------|
B|-(6)-6-6------------6-|------------6-----------------------6-|
G|---------9b10==(9)r---|-9b10==(9)r---9b10==(9)r-9b10==(9)r---|
D|----------------------|--------------------------------------|
A|----------------------|--------------------------------------|
E|----------------------|--------------------------------------|

E|--------------------------------|
B|-(6)-6-------------6------------|
G|--------9b10==(9)r---9b10==(9)r-|
D|--------------------------------|
A|--------------------------------|
E|--------------------------------|

Bb F
E|-----------------------------|--------------6-(6)------------|-----|
B|-6------------6------------6-|------------6-------9b10==(9)r-|-6---|
G|---9b10==(9)r---9b10==(9)r---|-9b10==(9)r--------------------|---8-|
D|-----------------------------|-------------------------------|-----|
A|-----------------------------|-------------------------------|-----|
E|-----------------------------|-------------------------------|-----|

Bb
E|-6-------------|-------------------|----------10-(10)-10--10-|
B|----8----------|----------11----11-|-(11)-11--11-(11)-11--11-|
G|------6h7------|------/10----10-10-|-(10)-10--10-(10)-10--10-|
D|----------8-5--|-8-----------------|-------------------------|
A|---------------|-------------------|-------------------------|
E|---------------|-------------------|-------------------------|

E|-(10)----10-----|-------10-(10)-10--10-|
B|-(11)----11-----|---11--11-(11)-11--11-|
G|-(10)----10-----|---10--10-(10)-10--10-|
D|-----------------|----------------------|
A|-----------------|----------------------|
E|-----------------|----------------------|

E|-(10)-8-8--6-8--6-|-(6)------------------|
B|-(11)-8-8--6-8--6-|-(6)-----6-6h8-8b9===-|
G|-(10)-8-8--7-8--7-|-(7)-----6-6h8-8b9===-|
D|------------------|------8---------------|
A|------------------|----------------------|
E|------------------|----------------------|

Eb Bb
E|------------------|----------------------|---------------|--------------|
B|-(8)-(8)r(8)--(8)-|-8b9==(8)r--8-(8)---6-|-6-6-----------|--------------|
G|-(8)-(8)r(8)--(8)-|-8b9==(8)r--8-(8)---6h|=7-7-7--7-7--7-|-(7)----------|
D|------------------|----------------------|-----8--8-8--8-|-(8)------8-8-|
A|------------------|----------------------|-------------8-|-(8)------8-8-|
E|------------------|----------------------|---------------|--------------|

F Bb
E|------------|--------------|----------|-----|
B|------------|--------------|----------|-----|
G|-6----------|-6-----8-6----|-7--------|-(7)-|
D|-6-------8--|-6--8--8-6----|-8--------|-(8)-|
A|---------8--|----8---------|-8--------|-(8)-|
E|------------|--------------|----------|-----|

Bb
E|--------------|----------|-----------|---|
B|----3---------|-6--------|-6----6----|-3-|
G|----3------3--|-5--------|-5----5----|-3-|
D|----3--3h5----|----------|-----------|-3-|
A|-1------------|----------|-----------|---|
E|--------------|----------|-----------|---|

E|---------------|-------------|------------|---|
B|-(3)--------3--|-/6----/6----|-4----/6----|-3-|
G|-(3)------3-3--|-/7----/7----|-5----/7----|-3-|
D|-(3)-----------|-------------|------------|---|
A|---------------|-------------|------------|---|
E|---------------|-------------|------------|---|

E|--------------|-------------|------------|------@-|
B|---3----------|-/6----/6----|-4----/6----|-3----@-|
G|---3-------3--|-/7----/7----|-5----/7----|-3----@-|
D|-----3--5-----|-------------|------------|------@-|
A|--------------|-------------|------------|------@-|
E|--------------|-------------|------------|------@-|
Другие песни: