Chuck BerryJohnny Be Goode Текст

0 Голосов
===============================================================================

-------------------------------------------------------------------------------
JOHNNY BE GOOD - Chuck Berry
-------------------------------------------------------------------------------

Tabbed By: A young bassist
e-mail: jscazzosi@yahoo.it

Tuning: GDAE

G|------------------|
D|----------6-5-----| Part A
A|------5-8-----8-5-| A# chord
E|--6-6-------------|

G|----------6-5-----|
D|------5-8-----8-5-| Part B
A|--6-6-------------| D# chord
E|------------------|

G|------------------|
D|------------------| Part C
A|--------3-6-3-----| F chord
E|--1-1-4-------4-1-|


The bass part starts in the intro with Parts BACA, and then it does
like AABACA. just play with these chord's scales and you'll got it.
jscazzosi@yahoo.it
===============================================================================
Другие песни: