Christensen TimLove Is A Matter Of Текст

0 Голосов
-----------------------------------

Song : Love Is A Matter Of...
Band : Tim Christensen
Album : Secrets On Parade
page : www.timchristensen.dk
-----------------------------------

Tabbet by: Steve Jensen (maestrojensen@hotmail.com)

Tuning: Standart tuning (E-A-D-G-B-E)

Sometimes you may use Am instead of Am7 in the verse, but i think Am7 gives a better sound.


Capo on 2. fret!


Intro: G-Gsus


Verse:
G D Am7 C
Love is a matter of difference between you
Gmaj7
And me.
G D Am7
Love is a matter of distance
C D G Gsus
But you are too far away.


Verse:
G D Am7 C
Love is a matter of growing and knowing
Gmaj7
Through feelings.
G D Am7
Love is a matter of showing
C D G
But you are so far away.



Chorus:
Cmaj7
When my heart is hoping
Cmaj7 Cmaj7 Cmaj7
My mind is opening to find
Bm
That I can't let you stay
E Am7
Though love is a matter of difference
C D G Gsus
You are too far away.



Verse:
G D Am7 C
Love is a matter of input, outlook
Gmaj7
Deep inside.
G D Am7
Love is to know you're on my side
C D G
But you are so far away.



Chorus:
Cmaj7
When my heart is hoping
Cmaj7 Cmaj7 Cmaj7
My mind is opening to find
Bm
That I can't let you stay
E Am7
Though love is a matter of difference
C D G Gsus
You are too far away.



Solo:
--(0)---3----------5--------------5-----5----------------------------------------------- e
---5-------5--7------7--8-------8-----7---7--8-----5--8--5--8-----5--8--5--7------------ b
----------------------------------------------------------------------------------7----- g
-------------------------------------------------------------------------------------9-- D
---------------------------------------------------------------------------------------- A
---------------------------------------------------------------------------------------- E


Chorus:
Cmaj7
When my heart is hoping
Cmaj7 Cmaj7 Cmaj7
My mind is opening to find
Bm
That I can't let you stay
E Am7
Though love is a matter of difference
C D G Gsus
You are too far away.

E Am7
If love is a matter of distance
C D G
You are too far away.




Chords:
G : 320003
Gsus : 320013
Gmaj7 : 320002
D : x00232
Am7 : x02010
Am : x02210
C : x32010
Cmaj7 : x32000
E : 022100
Bm : x24432


If there are any corrections please e-mail me at: maestrojensen@hotmail.com
Другие песни: