Christensen TimLove Is A Loosers Game Текст

0 Голосов
Hi! This is my first tab ever, and it is not really the way Tim plays it live, but this 

works for me!! Hope this is good enough!!

intro verse
x3 The 3rd time
-------------------------l----0---------------------|
-----3-1-0-----0h1-0----l-------3----3--------------|
---2--2-2-----2------2--l---0--0---0---0------------|
-------------------------l--------------------------|
-------------------------l--------------------------|
-1----------2------------l-3------------------------|

'On the rainy day show'
--1-----------|
--3-----------|
--2-----------|
--1-----------|
--x-----------|
--x-----------|

Chorus
'She don't mind the pain' 'Love is a -
-------------------------------------------|
-------------------------------------------|
-------------------------------------------|
--2222-3333-33333333----3333---------------|
--0000-0000-11111111----2222---------------|
-------------------------------------------|

- loser's game'
----------------------------------------|
----------------------------------------|
-1111-2222-2454-44444444----------------|
-2222-3333-3333-33333333----------------|
----------------------------------------|
----------------------------------------|

'You've got nothing to hide'
---------------------------------------|
---------------------------------------|
-222222122220000-2---------------------|
-222222222220000-0---------------------|
---------------------------------------|
---------------------------------------|


-0--------------------|
-0--------------------|
-1--------------------|
-0--------------------|
-2--------------------|
-0--------------------|

Outro

x3 The 3rd time
-------------------------l----0--------------0-------|
-----3-1-0-----0h1-0----l-------3----3------1--------|
---2--2-2-----2------2--l---0--0---0---0----0--------|
-------------------------l-------------------2-------|
-------------------------l-------------------3-------|
-1----------2------------l-3-----------------x-------|


Luis Birksш
Другие песни: