Choking VictimWar Story Текст

0 Голосов
intro: 

e|------------------------------------------------------------------------|
B|----11---11---11---11---11---11-----------------------------------------|
G|--8----8----8----8----8----8-----7777---play 6x then end with:--77-55---|
D|------------------------------------------------------------------------|
A|------------------------------------------------------------------------|
E|------------------------------------------------------------------------|

intro (cont'd):
e|-----------------------------------------------------------------------------|
B|----11---11---11---11---11---11----------------------------------------------|
G|--8----8----8----8----8----8-----7777---play 4x then end with:--77-55--------|
D|-------------------------------------------------------------------------6---|
A|-------------------------------------------------------------------------6---|
E|-------------------------------------------------------------------------4---|
after this, just play the intro again, but faster

verse:
e|---------------------------------|
B|---------------------------------|
G|------8------------5--3----------|
D|--5-6-8-8---(4x)---5--3---(4x)---|
A|--5-6-6-8----------3--1----------|
E|--3-4---6------------------------|

chorus (1st guitar):
e|--------------------------------------------------------------------------------------------|
B|-11-11-11-11-11-11-11------(play this fast)-------------------------------------------------|
G|-8--8--8--8--8--8--8--77---(4x)------------------2nd Guitar plays:---8-8-8-8-8-8-8-7---(4x)-|
D|---------------------------------------------------------------------x-x-x-x-x-x-x-x--------|
A|---------------------------------------------------------------------6-6-6-6-6-6-6-5--------|
E|--------------------------------------------------------------------------------------------|

verse:
e|---------------------------------|
B|---------------------------------|
G|------8------------5--3----------|
D|--5-6-8-8---(4x)---5--3---(4x)---|
A|--5-6-6-8----------3--1----------|
E|--3-4---6------------------------|

chorus (1st guitar):
e|--------------------------------------------------------------------------------------------|
B|-11-11-11-11-11-11-11------(play this fast)-------------------------------------------------|
G|-8--8--8--8--8--8--8--77---(8x)------------------2nd Guitar plays:---8-8-8-8-8-8-8-7---(8x)-|
D|---------------------------------------------------------------------x-x-x-x-x-x-x-x--------|
A|---------------------------------------------------------------------6-6-6-6-6-6-6-5--------|
E|--------------------------------------------------------------------------------------------|

e|---------------------------------------------------------------------------|
B|---------------------------------------------------------------------------|
G|--8----------------------------------8----------------------13--12-10--8---|
D|--8---6---play 4x then---6-5-3-------8---6---play 2x then----x---x--x--x---|
A|--6---6------------------6-5-3-------6---6------------------11--10--8--6---|
E|------4------------------4-3-1-----------4---------------------------------|

outro:
e|------10-11---------------|
B|--11---------11-----------|
G|-----------------12--10---|
D|--------------------------|
A|--------------------------|
E|--------------------------|
Другие песни: