ChimairaGag Текст

0 Голосов
Chimaira - Gag

Hunter Meng (hunter_meng@hotmail.com)


/ = slide
* = pinch harmonic
b = bend
h= hammer on
p = pull off||----------------------------------------------------------||
||----------------------------------------------------------||
||----------------------------------------------------------||
||-0--------------------------------------------------------||
||-0-----------3b*--------------1--/--6--/--3---------------||
||-0-----0-0---------0-0-0-0----1--/--6--/--3---------------||


||----------------------------------------------------------||
||----------------------------------------------------------||
||----------------------------------------------------------||
||-0--------------------------------------------------------||
||-0-----------3b*--------------1--/--4--/--1---------------||
||-0-----0-0---------0-0-0-0----1--/--4--/--1---------------||


||----------------------------------------------------------||
||----------------------------------------------------------||
||----------------------------------------------------------||
||----------------------------------------------------------||
||----0---0---0---0---0---0---0---0-------------------------||
||----0---0---0---0---0---0---0---0-------------------------||


||------------------------------------------------------------------------||
||------------------------------------------------------------------------||
||------------------------------------------------------------------------||
||------------------------------------------------------------------------||
||--------------------------------------------------------------3b*-------||
||---0-----0--0----0--0-0-----7-6-0--7-6-0--7-6-0-------------------------||


||------------------------------------------------------------------------------------------||
||------------------------------------------------------------------------------------------||
||-------------------------------------------------------------7-----7-7-----5/7----7-------||
||------------------------------------------------------------------------------------------||
||---6-----------------------3------------------------0--------5-----5-5-----3/5----5-------||
||---6-----------------------3------------------------0-------------------------------------||

||-------------------------------------------------------------------------||
||-------------------------------------------------------------------------||
||-------------------------------------------------------------------------||
||--------------------------5----------------------------------------------||
||--6-----------------------3------------------------0---------------------||
||--6------------------------------------------------0---------------------||


||-------------------------------------------------------------------------||
||-------------------------------------------------------------------------||
||-------------------2---------2-----2h3p2---------------------------------|| guitar 1
||-------------0------------------------------------3----------------------||
||-------0-----------------------------------------------------------------||
||-0-----------------------------------------------------------------------||


||-------------------------------------------------------------------------||
||-------------------------------------------------------------------------||
||-----------------2---------5----5h7----3---------------------------------|| guitar 1
||------------0------------------------------------------------------------||
||------0------------------------------------------------------------------||
||-0-----------------------------------------------------------------------||


||-------------------------------------------------------------------------||
||-------------------------------------------------------------------------||
||---8p6----8p6------------------------------------------------------------||
||---------------------9------7----7h9-------------------------------------||
||-------------------------------------------------------------------------|| guitar 2
||-------------------------------------------------------------------------||||-------------------------------------------------------------------------||
||-------------------------------------------------------------------------||
||---8p6----8p6------------------------------------------------------------||
||---------------------9------7----7h9-------5h7---------------------------|| guitar 2
||-------------------------------------------------------------------------||
||-------------------------------------------------------------------------||||-------------------------------------------------------------------------||
||-------------------------------------------------------------------------||
||---8p6----8p6------------------------------------------------------------||
||---------------------9------12--12h14--------5h7-------------------------|| guitar 2
||-------------------------------------------------------------------------||
||-------------------------------------------------------------------------||
||-------------------------------------------------------------------------||
||-------------------------------------------------------------------------||
||-------------------------------------------------------------------------||
||---0-------------------------------------0-------------------------------||
||---0-----0-0-0-0---6------3-----------0-----0-0-0-0---4----1-------------||
||---0-----0-0-0-0---6------3-----------0-----0-0-0-0---4----1-------------||||------------------------------------------------------------------------------------||
||------------------------------------------------------------------------------------||
||------------------------------------------------------------------------------------||
||---0-------------------------------------0------------------------------------------||
||---0-----0-0-0-0---6------3-----------0-----0-0-0-0----3b*---------3b*--------------||
||---0-----0-0-0-0---6------3-----------0-----0-0-0-0---------0-0---------------------||
Другие песни: