ЧичеринаНе поздно Текст

0 Голосов
intro:

2 раза:
e|-------0------|-
h|---3-----3---3|-
g|-4---4-----4--|-

e|-------0------|-
h|---3-----3---3|-
g|-3---3-----3--|-

По ходу всей песни такой перебор:
Hm
e|-------0------|-
h|---3-----3---3|-
g|-4---4-----4--|-
A
e|-------0------|-
h|---2-----2---2|-
g|-2---2-----2--|-
F#m
e|-------0------|-
h|---2-----2---2|-
g|-2---2-----2--|-

e|-------0------|-
h|---0-----0---0|-
g|-1---1-----1--|-


Hm A
Принимаю все как хочу
F#m E
Как сама себе придумала, дура
Hm A
То рыдаю, то хохочу,
F#m E
То театрально хватаюсь за дуло
Hm A
Я хочу уже освободиться
F#m E
От нелепой немой игры
Hm A
Я устала о стены биться
F#m E A
Я устала от чувства вины

Припев:
A E
Проснись,
F#m E
На ладонях лед – это слезы
A E F#m
Вернись,
E
Не поздно

Я не верю, что, может быть,
Я не помню твое лицо
Нет, я лгу, не могу забыть
Замыкается время в кольцо
То придумываю, то сон
То пожар на сердце, то холод
Ты не делаешь сам ничего
Так спасибо хотя бы за повод

Припев
Другие песни: