ChevelleComfortable Liar Текст

0 Голосов
Chevelle - Comfortable Liar

Album: wonder Whats Next
Tabbed out by Shawn


Tuning: 'drop D'

() = ghost note
~~ = let ring
x = mute
z = string rake
.
. = 1 second elapsed in song



{INTRO}


v-1 second passes before rake starts
A|-.-------.-----zz.----------------------------------------------|
D|-.zzzzzzz.zzzzz--.----------------------------------------------|


e|--------------------------------------------------------------------------------
B|--------------------------------------------------------------------------------
G|--7--------------------7-----------------7--------------------7----------------
D|4-7-4-4-4-4-0-0--0-0-4-7-4-4-4-4-x-0~~-4-7-4-4-4-4-0-0--0-0-4-7-4-4-4-4-x--x--x-
A|4-5-4-4-4-4-0-0--0-0-4-5-4-4-4-4-x-0~~-4-5-4-4-4-4-0-0--0-0-4-5-4-4-4-4-x--x--x-
D|4---4-4-4-4-0-0--0-0-4---4-4-4-4(0)0~~-4---4-4-4-4-0-0--0-0-4---4-4-4-4(4)(4)(4)

-------------------------------------------------------------------------------|
-------------------------------------------------------------------------------|
---7--------------------7-----------------7--------------------7---------------|
-4-7-4-4-4-4-0-0--0-0-4-7-4-4-4-4-x-0~~-4-7-4-4-4-4-0-0--0-0-4-7-4-4-4-4-x-0~~-|
-4-5-4-4-4-4-0-0--0-0-4-5-4-4-4-4-x-0~~-4-5-4-4-4-4-0-0--0-0-4-5-4-4-4-4-x-0~~-|
-4---4-4-4-4-0-0--0-0-4---4-4-4-4(0)0~~-4---4-4-4-4-0-0--0-0-4---4-4-4-4(0)0~~-|


{VERSE}

. .
Rake D|zzzzzzz.zzzz---. before the verse starts

e|---------------------------------------------|
B|---------------------------------------------|
G|---7-----------------------------------------|
D|-4-7-4-4-4-4-0-0-----------------------------|
A|-4-5-4-4-4-4-0-0--repeat x12-----------------|
D|-4---4-4-4-4-0-0-----------------------------|



{PRE-CHORUS}


e|---------------------------------------------------------------------------|
B|---------------------------------------------------------------------------|
G|---------------------------------------------------------------------------|
D|-0----------4----------0----------4----------------------------------------|
A|-0----------4----------0----------4----------------------------------------|
d|-0----------4----------0----------4----------------------------------------|


{VERSE 2}

Repeat Verse EXACTLY as the first verse


{CHORUS}


e|---------------------------------------------------------------------------
B|---------------------------------------------------------------------------
G|---------------------------------------------------------------------------
D|-X--X--0-----------------x--x--4----------------x--x--0--------x--x--4-----
A|-X--X--0---Repeat x8-----x--x--4---Repeat x8----x--x--0--x8----x--x--4--x8-
D|(0)(0)-0----------------(4)(4)-4---------------(0)(0)-0-------(4)(4)-4-----

-------------------------------------------------------------------------------|
-------------------------------------------------------------------------------|
-------------------------------------------------------------------------------|
-0----------4----------0----------4----------0---------4---------0---------4---|
-0----------4----------0----------4----------0---------4---------0---------4---|
-0----------4----------0----------4----------0---------4---------0---------4---|



{VERSE 3}

Repeat Verse EXACTLY as the first verse



{OUTTRO}


e|---------------------------------------------------------------------------|
B|---------------------------------------------------------------------------|
G|---------------------------------------------------------------------------|
D|-4--x--x--4------------------After repeated----0~~-------------------------|
A|-4--x--x--4----Repeat x31----------------------0~~-------------------------|
D|-4-(4)(4)-4------------------------------------0~~-------------------------|
Другие песни: