Черный КофеПылает за окном звезда Текст

0 Голосов
Вступление:
-----5---3---2-3-2-----5-----3-----2---------5---3---2-3-2-----5-----3-----
-----5---5-------------5-------5-----3-------5---5-------------5-------5---
---4---4---4---------5---5-------5-----4---4---4---4---------5---5-------5-
---------------------------------------------------------------------------
-------------------0-------3-------------------------------0-------3-------
-0---------------------------------------0---------------------------------

-2-----0-----------(12)---- (12) - флежолет на 12 ладу
---3-----(12)-------------- Эти флежолеты играются
-----4--------(12)--------- в конце каждой строфы
---------------------------
---------------------------
-------0-------------------

Em Bm Em
Пылает за окном звезда
Am Am/C Em
Мигает огоньком лампада
D C Am
И видно суждено и надо
Am/C B7 C G* Am
Чтоб стала горечью отрада
B7 Em
Невесть ушедшая куда

Em Bm Em
Над колыбелью тихий свет
Am Am/C Em
И как не твой напев баюный
D C Am
И свет и звезды лисий след
Am/C B7 C G* Am
И месяц золотой и юный
B7 Em
Ни дней не знающий ни лет

Am Bm C
Как жаль и больно мне вспугнуть
Am Bm Em
Взбродить знакомую излуку
D C Am
И взять как прежде в руки руку
B7 C G * Am
Простишь ли мне земную муку
B7 Em
Земную ласку не забудь

-----5---3---2-3-2-----5-----3-----2---------5---3---2-3-2-----5-----3-----
-----5---5-------------5-------5-----3-------5---5-------------5-------5---
---4---4---4---------5---5-------5-----4---4---4---4---------5---5-------5-
---------------------------------------------------------------------------
-------------------0-------3-------------------------------0-------3-------
-0---------------------------------------0---------------------------------

-2-----0-----------(12)---- (12) - флежолет на 12 ладу
---3-----(12)-------------- Эти флежолеты играются
-----4--------(12)--------- в конце каждой строфы
---------------------------
---------------------------
-------0-------------------

Em B7 Em
Мигает за окном звезда
Am Am/C Em
Над колыбелью тихий свет
D C Am
Поутру стол и табурет
B7 C G * Am
Так значит суждено и нет
B7 Em Am C D Em
Другого счастья мне не надо-а-а
Другие песни: