CheeseMottaka Текст

0 Голосов
Intro:
e|-----------------------------------------------------------------------------|
B|-----------------------------------------------------------------------------|
G|-----------------------------------------------------------------------------|
D|-----------------------------------------------------------------------------|
A|-------4-5-4h5p4--4-5-5/7-7-5-5-4-4-5-4h5p4---4-----------4-4h5-4---4h5-4----|
E|--3-5-----------5---------------------------5---5-5-3-3-5---------5----------|

e|------------------------------------------------------------------------|
B|------------------------------------------------------------------------|
G|------------------------------------------------------------------------|
D|------------------------------------------------------------------------|
A|------4-5-4h5p4---4-5-5/7-7-5-5-9-9-5-5-7-7-5-5-4-4-5-4h5p4---4---------|
E|--3-5-----------5-------------------------------------------5---5-5-3---|

e|-----------------------------------------------------------------------------|
B|-----------------------------------------------------------------------------|
G|-----------------------------------------------------------------------------|
D|-----------------------------------------------------------------------------|
A|------4-5-4h5p4---4-5-5/7-7-5-5-9-9-10-10-9-9-10-10-7-9-7-5-7-5-4-5-4--------|
E|--3-5-----------5-----------------------------------------------------5-3-3--|

e|------------------------------------------------------------------------------------------------------|
B|------------------------------------------------------------------------------------------------------|
G|--------------------------------------------------------------------13h15-13-12-13-12-----------------|
D|---------------------------------------------11h12-11---11h12-11----------------------12h14-11h12-11--|
A|------4-5-4h5p4---4-5-5/7-7-5-5-9-9-10-10-12----------12---------12-----------------------------------|
E|--3-5-----------5-------------------------------------------------------------------------------------|

Verse 1:
Play these 3x
e|--------------------------------------0-----0-----0-----0------|
B|--------0-------------0-------------6-----6-----6-----6--------|
G|----6-----6-----4-4-----4---------7-----7-----7-----7----------|
D|--7---7-----7-5-----5-----5------------------------------------|
A|---------------------------------------------------------------|
E|---------------------------------------------------------------|

Play these 3x
e|------------------------------------------------------|
B|-------0-----------5-----------0----------5----6------|
G|----6----6---4-4-----4-----3-----3------5----6--------|
D|--7--7-----5-----5-----5-4---4-----4--5----6----------|
A|------------------------------------------------------|
E|------------------------------------------------------|

Then
e|-------------------------------------------------------|
B|-------------------------------------------------------|
G|-------------------------------------------------------|
D|--------0-------------0-----------0---------5-----6----|
A|----4-----4-----5-5-----5-----4-----4-----3-----4------|
E|--5---5-----5-3-----3-----3-2---2-----2-3-----4--------|

e|-------------------------|
B|-------------------------|
G|-------------------------|
D|--feedback---------------|
A|-------------------------|
E|-------------------------|

Verse 2:
Play these 4x
e|--------------------------------------0-----0-----0-----0------|
B|--------0-------------0-------------6-----6-----6-----6--------|
G|----6-----6-----4-4-----4---------7-----7-----7-----7----------|
D|--7---7-----7-5-----5-----5------------------------------------|
A|---------------------------------------------------------------|
E|---------------------------------------------------------------|

Play these 4x
e|-------------------------------------------------------|
B|-------------------------------------------------------|
G|-------------------------------------------------------|
D|--------0-------------0-----------0---------5-----6----|
A|----4-----4-----5-5-----5-----4-----4-----3-----4------|
E|--5---5-----5-3-----3-----3-2---2-----2-3-----4--------|

Bridge:
Play these 2x
e|-------------------------------------------|
B|-------------------------------------------|
G|-------------------------------------------|
D|--5-5-5-5--6-6-6-6--5-5-5-5--8-8-8--6-6-6--|
A|--3-3-3-3--4-4-4-4--3-3-3-3--6-6-6--4-4-4--|
E|--3-3-3-3--4-4-4-4--3-3-3-3--6-6-6--4-4-4--|

e|--0--|
B|--0--|
G|--0--|
D|--0--|
A|--0--|
E|--0--|

Then play this as loud as you can!!!
e|-------------------------------|
B|-------------------------------|
G|-------------------------------|
D|----------4--------------------|
A|--3p0-2p0---3-2-0--------------|
E|-------------------------------|
Другие песни: