Cheese10x karma Текст

0 Голосов
Intro Riff
Guitar 1:
a|---------------------------|
E|---------------------------|
C|---------------------------|
G|-----2h4-4h5-5h6-5h6-5h6---|
D|--2------------------------|
A|--0------------------------|
*

(*)Palm mute the power chord.

Guitar 2:
e|---------------------------|
B|---------------------------|
G|---------------------------|
D|---------------------------|
A|-xx-2--xx-2--xx-2--xx-2----|
E|-xx-0--xx-0--xx-0--xx-0----|

The 4th time you do this in the intro, just sustain the powerchord.
This is played with guitar 1 above during the intro riff.

Both Guitars:
e|---------------------------|
B|---------------------------|
G|---------------------------|
D|---------------------------|
A|--2--5h7-------------------|
E|--0------2h3-3h4-3h4-3h4---|
*

Then both guitars play this riff.

Pre-Verse:
e|-----------------------------|
B|-----------------------------|
G|--7---7-7-9-7-8--------------|
D|--7---7-7-9-7-8---5-5---5-5--|
A|--5---5-5-7-5-6---5-5---5-5--|
E|------------------3-3---3-3--|
* * * *

Verse:
e|---------------------------|
B|---------------------------|
G|---------------------------|
D|---xx--6-6-----xx-5-5------|
A|----------7-7--------6-6---|
E|---------------------------|
This part has a lot of mute notes.

Chorus:
e|----------------------------|
B|--9-9-----8-8---------------|
G|--8-8-8---7-7-7-------------|
D|--6-6-8---5-5-7-------------| x4
A|------6-------5-------------|
E|----------------------------|

e|----------------------------|
B|----------------------------|
G|--9--------------9----------|
D|--9--------------9----------| x4
A|--7--------------7----------|
E|-----0-4-5-0--------0-4-5-0-|

This riff only appears 2 times in the song.

e|---------------------------|
B|---------------------------|
G|---------------------------|
D|--6-6---6-6---6-6----------| x3
A|---------------------------|
E|---------------------------|

This riff is played only once in the song.
It is before one of the verses.

Outro:
Guitar 1:
e|-----------------------------------------------------------------|
B|-----------------------------------------------------------------|
G|-----------------------------------------------------------------|
D|-----------------------------------------------------------------|
A|-----------------------------------------------------------------|
E|-0-0-0-0-0-0-0-0-0-0-0-0-3-3-3-3-0-0-0-0-0-0-0-0-0-0-0-0-3-3-3-3-|

e|---------------------------------------------------|
B|---------------------------------------------------|
G|---------------------------------------------------|
D|---------------------------------------------------|
A|---------------------------------------------------|
E|-0-0-0-0-0-0-0-0-3-3-3-3-4-4-4-4-0-0-0-0-0-0-0-0-0-|

This is after the drum solo.
It's hard to show the timings here, but these are the notes
that are used. Figure out the timing by listening to the song.
Palm mute all the way.

Guitar 2:
e|---------------------------|
B|---------------------------|
G|---------------------------|
D|-2-------------------------|
A|-2-------------------------|
E|-0-------------------------|

This is after the drum solo.
Sustain powerchord. Then do a bunch of feedback effects afterwards.

Both Guitars:
e|-------------------------------------------------|
B|-------------------------------------------------|
G|-------------------------------------------------|
D|-------------------------------------------------|
A|-------------------------------------------------|
E|-0-0-0-3-3-3-4-4-4-1-1-1-0-0-0-3-3-3-4-4-4-1-1-1-|

Repeat this until the end. Palm mute the entire thing.
Then play the intro riff.
Другие песни: