Celine DionI Love You Текст

0 Голосов
HIM - I Love You (Prelude To Tragedy)

Tabbed By: Dylan Givens
EMail: dylangivens@lycos.com
Composed by: HIM
Tabulated by: The Duke & Luke “Lazy Sky” Vai
Info: -> Slide down
r -> Released
b -> Bending
br -> Bend & Release
~ -> Vibrato
- -> Muted
4x
E||----------||--------------------------|-----------------------||
B||----------||--------------------------|-----------------------||
G||----------||*-------------------------|----------------------*||
D||----------||*-------------------------|----------------------*||
A||----------||-----------------------3--|----2----0-------------||
E||--3--5~---||---0--0--5--0--3--5~------|--------------3--5~----||

Verse1
KEYBOARD
|---0------------|---------------------|---------------------|
|---0------------|---------------------|--0------------------|
|---0------------|---------------------|---------0-----------| а Clean Guitar
|---2------------|---------------------|----------------4----|
|---2------------|---------------------|---------------------|
|---0------------|---------------------|---------------------|


|----------------|---0-----------------|---------------------|
|----------------|---0-----------------|---------------------|
|----------------|---0-----------------|---------------------|
|--2-------------|---2-----------------|---------------------|
|----------------|---2-----------------|---------------------|
|----------------|---0-----------------|---------------------|


|---3-----------------------|-----2--------------------------|
|---3-----------------------|-----3--------------------------|
|---0-----------------------|-----2--------------------------|
|---0-----------------------|-----0--------------------------|
|---2-----------------------|--------------------------------|
|---3-----------------------|--------------------------------|


|---0----------------|-----------------|---------------------|
|---0----------------|-----------------|--0------------------|
|---0----------------|-----------------|---------0------2----|
|---2----------------|-----------------|---------------------|
|---2----------------|-----------------|---------------------|
|---0----------------|-----------------|---------------------|


|-------------|---0--------------------|---------------------|
|-------------|---0--------------------|---------------------|
|-------------|---0--------------------|---------------------|
|--2----------|---2--------------------|---------------------|
|-------------|---2--------------------|---------------------|
|-------------|---0--------------------|---------------------||-------------------|--------------------|
|-------------------|--------------------|
|-------------------|--------------------| -> Distortion Guitar
|--5----------------|--12----------------|
|--5----------------|--12----------------|
|--3----------------|--10----------------|


|--------------------------|--------------------------|------|
|--------------------------|--------------------------|------|
|--5--5--5--5--5--5--5--5--|--5--5--5--5--5--5--5--5--|------|
|--5--5--5--5--5--5--5--5--|--5--5--5--5--5--5--5--5--|--5---|
|--3--3--3--3--3--3--3--3--|--3--3--3--3--3--3--3--3--|--5---|
|--------------------------|--------------------------|--3---|


|------|--------------------------|--------------------------|
|------|--------------------------|--------------------------|
|------|--5--5--5--5--5--5--5--5--|--5--5--5--5--5--5--5--5--|
|--12--|--5--5--5--5--5--5--5--5--|--5--5--5--5--5--5--5--5--|
|--12--|--3--3--3--3--3--3--3--3--|--3--3--3--3--3--3--3--3--|
|--10--|--------------------------|--------------------------|


|--------|---------|----------------------------------|
|--------|---------|----------------------------------|
|--------|---------|----------------------------------|
|--5-----|--12-----|--12--12--12--12--12--12--12--12--|
|--5-----|--12-----|--12--12--12--12--12--12--12--12--|
|--3-----|--10-----|--10--10--10--10--10--10--10--10--|

Chorus
|--------------------------|
|--------------------------|
|--------------------------|
|--12----------------------|
|--12----------------------|
|--10----------------------|


|--------------------------|--------------------------|
|--------------------------|--------------------------|
|*-------------------------|--------------------------|
|*-2--2--2--2--2--2--2--2--|--2--2--2--2--2--2--2--2--|
|--2--2--2--2--2--2--2--2--|--2--2--2--2--2--2--2--2--|
|--0--0--0--0--0--0--0--0--|--0--0--0--0--0--0--0--0--|


|--------------------------|--------------------------|
|--------------------------|--------------------------|
|--------------------------|--------------------------|
|--2--2--2--2--2--2--2--2--|--2--2--2--2--2--2--2--2--|
|--2--2--2--2--2--2--2--2--|--2--2--2--2--2--2--2--2--|
|--0--0--0--0--0--0--0--0--|--0--0--0--0--0--0--0--0--|


|-------------------------------|---------------------------------|
|-------------------------------|---------------------------------|
|-------------------------------|---------------------------------|
|-10-10-10--10--10--10--10--10--|-10--10--10--10--10--10--10--10--|
|-10-10-10--10--10--10--10--10--|-10--10--10--10--10--10--10--10--|
|-8--8--8---8---8---8---8---8---|-8---8---8---8---8---8---8---8---|


|--------------------------|---------------------------|
|--------------------------|---------------------------|
|--------------------------|--------------------------*|
|--5--5--5--5--5--5--5--5--|--7--7--7--7--7--7--7--7--*|
|--5--5--5--5--5--5--5--5--|--7--7--7--7--7--7--7--7---|
|--3--3--3--3--3--3--3--3--|--5--5--5--5--5--5--5--5---|

4x
|----------||--------------------------|-----------------------||
|----------||--------------------------|-----------------------||
|----------||*-------------------------|----------------------*||
|----------||*-------------------------|----------------------*||
|----------||-----------------------3--|----2----0-------------||
|--3--5~---||---0--0--5--0--3--5~------|--------------3--5~----||

Verse2
|---0------------|-------------------|---------------------|
|---0------------|-------------------|--0------------------|
|---0------------|-------------------|---------0-----------| -> Clean Guitar
|---2------------|-------------------|----------------4----|
|---2------------|-------------------|---------------------|
|---0------------|-------------------|---------------------|


|----------------|---0---------------|---------------------|
|----------------|---0---------------|---------------------|
|----------------|---0---------------|---------------------|
|--2-------------|---2---------------|---------------------|
|----------------|---2---------------|---------------------|
|----------------|---0---------------|---------------------|


|---3----------------------|---2---------------------------|
|---3----------------------|---3---------------------------|
|---0----------------------|---2---------------------------|
|---0----------------------|---0---------------------------|
|---2----------------------|-------------------------------|
|---3----------------------|-------------------------------|


|---0-------------|------------------|---------------------|
|---0-------------|------------------|--0------------------|
|---0-------------|------------------|---------0------2----|
|---2-------------|------------------|---------------------|
|---2-------------|------------------|---------------------|
|---0-------------|------------------|---------------------|


|-----------------|---0--------------|---------------------|
|-----------------|---0--------------|---------------------|
|-----------------|---0--------------|---------------------|
|--2--------------|---2--------------|---------------------|
|-----------------|---2--------------|---------------------|
|-----------------|---0--------------|---------------------||-------------------|--------------------|
|-------------------|--------------------|
|-------------------|--------------------| -> Distortion Guitar
|--5----------------|--12----------------|
|--5----------------|--12----------------|
|--3----------------|--10----------------|


|--------------------------|--------------------------|------|
|--------------------------|--------------------------|------|
|--5--5--5--5--5--5--5--5--|--5--5--5--5--5--5--5--5--|------|
|--5--5--5--5--5--5--5--5--|--5--5--5--5--5--5--5--5--|--5---|
|--3--3--3--3--3--3--3--3--|--3--3--3--3--3--3--3--3--|--5---|
|--------------------------|--------------------------|--3---|


|------|--------------------------|--------------------------|
|------|--------------------------|--------------------------|
|------|--5--5--5--5--5--5--5--5--|--5--5--5--5--5--5--5--5--|
|--12--|--5--5--5--5--5--5--5--5--|--5--5--5--5--5--5--5--5--|
|--12--|--3--3--3--3--3--3--3--3--|--3--3--3--3--3--3--3--3--|
|--10--|--------------------------|--------------------------|


|--------|---------|----------------------------------|
|--------|---------|----------------------------------|
|--------|---------|----------------------------------|
|--5-----|--12-----|--12--12--12--12--12--12--12--12--|
|--5-----|--12-----|--12--12--12--12--12--12--12--12--|
|--3-----|--10-----|--10--10--10--10--10--10--10--10--|

Chorus_End
|------------------------|
|------------------------|
|------------------------|
|--12--------------------|
|--12--------------------|
|--10--------------------|


|--------------------------|--------------------------|
|--------------------------|--------------------------|
|*-------------------------|--------------------------|
|*-2--2--2--2--2--2--2--2--|--2--2--2--2--2--2--2--2--|
|--2--2--2--2--2--2--2--2--|--2--2--2--2--2--2--2--2--|
|--0--0--0--0--0--0--0--0--|--0--0--0--0--0--0--0--0--|


|--------------------------|--------------------------|
|--------------------------|--------------------------|
|--------------------------|--------------------------|
|--2--2--2--2--2--2--2--2--|--2--2--2--2--2--2--2--2--|
|--2--2--2--2--2--2--2--2--|--2--2--2--2--2--2--2--2--|
|--0--0--0--0--0--0--0--0--|--0--0--0--0--0--0--0--0--|


|-------------------------------|---------------------------------|
|-------------------------------|---------------------------------|
|-------------------------------|---------------------------------|
|-10-10-10--10--10--10--10--10--|-10--10--10--10--10--10--10--10--|
|-10-10-10--10--10--10--10--10--|-10--10--10--10--10--10--10--10--|
|-8--8--8---8---8---8---8---8---|-8---8---8---8---8---8---8---8---|


|--------------------------|---------------------------|
|--------------------------|---------------------------|
|--------------------------|--------------------------*|
|--5--5--5--5--5--5--5--5--|--7--7--7--7--7--7--7--7--*|
|--5--5--5--5--5--5--5--5--|--7--7--7--7--7--7--7--7---|
|--3--3--3--3--3--3--3--3--|--5--5--5--5--5--5--5--5---|

8x
|----------||--------------------------|-----------------------||
|----------||--------------------------|-----------------------||
|----------||*-------------------------|----------------------*||
|----------||*-------------------------|----------------------*||
|----------||-----------------------3--|----2----0-------------||
|--3--5~---||---0--0--5--0--3--5~------|--------------3--5~----||


|-----------------------|-----------------------|
|-----------------------|-----------------------|
|-----------------------|-----------------------|
|-2--------------------|-2--------------------|
|-2--------------------|-2--------------------|
|-0--------------------|-0--------------------|
Другие песни: