Catch 22Riding The Fourth Wave Текст

0 Голосов
this is the flute intro


Part 1
E--------------------------------------------------------------
B--------------------------------------------------------------
G--9-999-7--9-9-99-11-12-11-9-999-7-------9-9-7-7-6-6-8-9-10---
D----------9------------------------9-7-9--9---9---7-----------
A--------------------------------------------------------------
E--------------------------------------------------------------

E--------------------------------------------------------------
B--------------------------------------------------------------
G--9-999-7-----------------------------------------------------
D---------9-7-9------------------------------------------------
A--------------------------------------------------------------
E--------------------------------------------------------------
Другие песни: