CasualtiesSocietys Fodder Текст

0 Голосов
Society's Fodder - The Casualties

By:sykomantis@hotmail.com

Intro:

G|---------------------------------------------------------------------------|
D|---------------------------------------------------------------------------|
A|-------------------------------------------------55555555-44444444---------|
E|-777777777777777-3333333-5555555-777777777777777---------------------------|

Verse:

G|---------------------------------------------------------------------------|
D|---------------------------------------------------------------------------|
A|-------------------------------------------5555555-4444444-----------------|
E|-777777777777-3333333-5555555-777777777777---------------------------------|

Chorus:

G|---------------------------------------------------------------------------|
D|-----------------5555555-4-4-4---------------------------------------------|
A|-5555555-7777777-----------------------------------------------------------|
E|---------------------------------------------------------------------------|

Bridge:

G|---------------------------------------------------------------------------|
D|-----------------5555555-4-4-4---------------------------------------------|
A|-5555555-7777777-----------------------------------------------------------|
E|---------------------------------------------------------------------------|

End:

G|---------------------------------------------------------------------------|
D|-----------------5555555-4-4-4-4-4-4---------------------------------------|
A|-5555555-7777777---------------------7-------------------------------------|
E|---------------------------------------------------------------------------|


Listen to the song for the order.

UP THE FUCKEN PUNX!!!
Другие песни: