CasualtiesFight For Your Life Текст

0 Голосов
Song:: Fight For Your Life

Artist:: The Casualties
Album:: Warped Tour 2001 Compilation
Tab by:: J. Nickerson = nogoals4u@juno.com
(Please Give Me Some FeedBack!!)
NOTE*** scroll to end of text to see play order

RIFF A
e -----------------------------------------------|
-----------------------------------------------|
---------------------6-6-6-6-6-6-6-6-6---------|
-6-6-6-6-6-6-6-6-6---6-6-6-6-6-6-6-6-6---------|
-6-6-6-6-6-6-6-6-6---4-4-4-4-4-4-4-4-4---------|
E -4-4-4-4-4-4-4-4-4-----------------------------|

RIFF B
e ------------------------------------------------|
-----------------------------------------------|
-6-6-6-6-6-6-6-6-6---13-13-13--11-11-11-11-----|
-6-6-6-6-6-6-6-6-6---13-13-13--11-11-11-11-----|
-4-4-4-4-4-4-4-4-4---11-11-11---9--9--9--9-----|
E ------------------------------------------------|

RIFF C **(BREAKDOWN)**
e -----------------------------------------------------------------------------|
----------------------------------------------------------------------------|
-4-4-4--11-11-11--4-4-4--11-11-11---4-4-4--11--9--0--6-6-6-6-6-6-6-6-6------|
-4-4-4--11-11-11--4-4-4--11-11-11---4-4-4--11--9--0--6-6-6-6-6-6-6-6-6------|
-2-2-2--9?-9--9---2-2-2---9? 9 -9---2-2-2---9--7--0--4-4-4-4-4-4-4-4-4------|
E -----------------------------------------------------------------------------|

--------------------------
| **PLAY ORDER** |
--------------------------
Riff A 4X
Riff B 4X
Riff A 2X
Riff B 4X
Riff A 2X
Riff C(Breakdown) 2X
Riff B 4X
Riff A 3X
Riff B 4X
Riff A 4X (end on d--6-- )
a -6--
e--4--
Другие песни: