Cash JohnnyWill The Circle Be Unbroken Текст, аккорды

0 Голосов
Will the Circle Be Unbroken

Johnny Cash

Tab by :omanyen@fusemail.com

I've omitted the words here so I could show you how to play
the verse and melody on just the guitar. This version is
played in D .

D
----------2-----2-----2-----------2-----2-----2-------|
----------3-----3-----3-----------3-----3-----3-------|
----------2-----2-----2-----------2-----2-----2-------|
-------0-----0-----0-----4--2--0-----4-----4-----4--2-|
-0--2-------------------------------------------------|
------------------------------------------------------|

G D ( fill-in-run ) h=hammer
----3-----3-----3-----3-|----2-|-------------------2-|
----0-----0-----0-----0-|----3-|-------------------3-|
----0-----0-----0-----0-|----2-|-------------------2-|
-0-----2-----0----------|-0----|--2h3--0--------0----|
-------------------2----|------|----------2--0-------|
------------------------|------|---------------------|

D
-----------2-----2-----2------------2-----2-----2---|
-----------3-----3-----3------------3-----3-----3---|
-----------2-----2-----2-----4---2--2-----2-----2---|
-------0------0-----0-----4------------4-----4------|
-0--2-----------------------------------------------|
----------------------------------------------------|

A D /=slide up

-----------2-----2-----2-----------2-|-----------------1/2-|
-----------3-----3-----2-----------3-|-----------------2/3-|
-----4--2--2-----2-----2-----------2-|-----------------1/2-|
--4-----------4-----2-----4--2--0----|--2h3-0-------0------|
-------------------------------------|---------2-0---------|
-------------------------------------|---------------------|


Any questions, comments, or complaints, feel free to
E-mail me or post a thread at this sight.
Другие песни: