CallingThings Dont Always Turn Out That Way Текст

0 Голосов
The Calling - Things don`t always turn out that way


Tabbed by Juan Guido Botindari

Intro (x2)
Gm F Bb C#

e --11-10--------10-8---------------8--8--6----------------------
B ----------8--------------6-------6----------------8--10--11----
G ---------------------------------------------------------------
D ---------------------------------------------------------------
A ---------------------------------------------------------------
E ---------------------------------------------------------------

[Verse:] (Palm muted)

Gm F Bb Cm
Well he can't sleep at night
Gm F Bb Cm
And he can't do what's right
Gm F Bb Cm
It was all because she came into his life
Gm F Bb F F7
it's a deep obsession, taking up his time

[Chorus:]
Cm F
She's all that he wants, she's all that he needs
Bb Gm
She's everything he just won't believe
Cm F
Take away his doubt, turn him inside out
Bb Gm
Then she can see what he's been dying to say
Cm F
but things don't always turn out that way

[Verse:] (Palm muted)

Gm F Bb Cm
And he must confess
Gm F Bb Cm
All the impure thoughts of his beautiful temptress
Gm F Bb Cm
although he keeps it all bottled up inside
Gm F Bb F F7
although he keeps it all safe within his mind, oh yeah

[Chorus:]

[Bridge:]
Cm7 Gm Cm7
So wipe that smile off your face
Gm Cm7
Before it gets too late
Gm Cm
There's only so much time
F
For you to make up your mind

[Solo:] (Itґs not 100% correct)

e---------------------------------------------------------------------
B------11--10--11-----------------------------------------------------
G-10----------------10------------------------------------------------
D-----------------------12--13--12---13--13---12--------8--10--8--10--
A---------------------------------------------------------------------
E---------------------------------------------------------------------

e--------------------------------------------------------------------------------------
B--------------------------------------------------------------------------------------
G---------------------------------------------------------10/12--12---10--8--10--8--7--
D----------------8h10--8-----10/12---12--12--10-8--10--8-------------------------------
A---------8--10------------------------------------------------------------------------
E--8--10-------------------------------------------------------------------------------

[Chorus:] (x2)


[Outro:] Repeat and fade out

Gm F Bb C#
things don't always turn out that way


e-11-10-----10-8-------------8--8--6---
B--------8--------6-------6------------
G--------------------------------------
D--------------------------------------
A--------------------------------------
E--------------------------------------
Другие песни: