Butthole SurfersJingle Of A Dogs Collar Текст

0 Голосов
JINGLE OF A DOG'S COLLAR By Butthole Surfers (Electriclarryland) Song 6.


E-----------------------------------------------|
B------11----11----11--------10----10----10-----| repeat
G--12-----12----12----10--10----10----10----10--|
D-----------------------------------------------|
A-----------------------------------------------|
E-----------------------------------------------|

E--------------------------------------------|
B------11----11----11---13--13-13-13-13-13---|
G--12-----12----12------14b-14-14-14-14-14r--|
D-------------------------- hold bend -------|
A--------------------------------------------|
E--------------------------------------------|

Verse:

E-------------------------------|
B-------------------------------|
G----3---3---3------2---2---2---|
D--5---5---5---3--3---3---3---3-|
A-------------------------------|
E-------------------------------|

Chorus:

E-----------------------------------------------------------------------------------|
B------11----11----11--13--13-13-13-13-13-------11----11----11--10b-10-10-10-10-10--|
G--12-----12----12-----14b-14-14-14-14-14r--12-----12----12-----10b-10-10-10-10-10--|
D------------------------- hold bend ----------------------------- hold bend -------|
A-----------------------------------------------------------------------------------|
E-----------------------------------------------------------------------------------|

Interlude chords:

Gm F#m
E--10----9----|
B--11---10----|
G--12---11----|
D--12---11----|
A--10----9----|
E-------------|

back to verse/chorus/verse/interlude

Ending:
F#m Fm Dm Bm Bbm
E--10--9-----------------9-8-------------5--------2-----1----|
B--------10-----------10-----9-----------6--------3-----2----|
G-----------11-----11----------10--------7--------4-----3----|
D--------------11-----------------10-----7--------4-----3----|
A----------------------------------------5--------2-----1----|
E------------------------------------------------------------|
Другие песни: