BucketheadGhost Pt 2 Текст, аккорды

0 Голосов
This is my favorite song off this CD. This Seems Mostly Right


E--------------------
B--------------------
G--------------------
D-14--17--15--14-----
A-------------0~-----
E--------------------

E--------------------------------
B--------------------------------
G--------------------------------
D-14--17--15--12--14s15s14-------
A---------------------------0~---
E--------------------------------

E----------------------------------------------------8----
B---------------------------------------------------8-----
G----------------------------------------------9h10-------
D-14--17--15--12--12s14-14h15---15p14-------10------------
A-----------------------------0~----------0---------------
E---------------------------------------------------------
Другие песни: