Bryan AdamsWe Don't Know What We're Doing Текст

0 Голосов
A 
We don't know what we're doing
E
Don't know what we're doing
F#m D
We're so out of it - we're on the road to ruin
A E
I said - hey hey hey hey
A
Don't know what we're doing

Now Take those Chords as а Shuffle
A E F#m D A
E |------------------------------------------------------|
B |2-2--2-2--2-2-2-2-------------------------------------|
G |2-2--2-2--2-2-2-2-------------------------------------|
D |2-2--4-2--2-2-4-2-2-2-2--2--2-2-2-2-------------------|
A |0------0----------2-2-4--2--2-2-4-2--4-4-4-4--4-4-4-4-|
E |------------------0-0-0--0--0-0-0-0--2-2-4-2--2-2-4-2-|

E |-----------------------------------|
B |-----------------------------------|
G |-----------------------------------|
D |-7-7-7-7--7-7-7-7------------------|
A |-5-5-7-5--5-5-7-5-7-7-7-7--7-7-7-7-|
E |------------------5-5-7-5--5-5-7-5-|

E A
E |-----------------------------------------------|
B |-----------------------------------------------|
G |-----------------------------------------------|
D |9-9-9-9--9-9-9-9-------------------------------|
A |7-7-9-7--7-7-9-7-7-7-9-7--7-7-9-7-7-9-7--7-7-9-|
E |-----------------5-5-5-5--5-5-5-5-5-5-5--5-5-5-|

Lead Guitar Plays; (faintly)

(up strokes)
A E F# D (then just strum A bar chord and E bar chord)
E |-----x-5-5-5-x-7-7-7-x-9--9--9---x--5-5-5-|
B |-----x-5-5-5-x-9-9-9-x-10-10-10--x--7-7-7-|
G |-----x-6-6-6-x-9-9-9-x-11-11-11--x--7-7-7-|
D |-----x-7-----x-9-----x-11--------x--7-----|
A |4p0--x-7-----x-7-----x-9---------x--------|
E |-----x-5-----x-------x-----------x--------|

Verse 1:
Rythem Plays these Chords
D
Make а little noise - have а little fun
A
Raise а little hell - before the moment comes
D
Let the good times roll - let the bad times pass
B
You've got to get on the floor
E
Shake your ass

in this type of shuffle
D A
E |---------------------------------------------------------------------|
B |---------------------------------------------------------------------|
G |---------------------------------------------------------------------|
D |---------------------------------------------------------------------|
A |7/12-12-12-12-12-12-12-12-12-12-12-12--3/7-7-7-7-7-7-7-7-7-7-7-7-7-7-|
E |5/10-10-10-10-10-10-10-10-10-10-10-10--5/5-5-5-5-5-5-5-5-5-5-5-5-5-5-|

D B E
E |--------------------------------------------|
B |--------------------------------------------|
G |--------------------------------------------|
D |--------------------------------------------|
A |9/12-12-12-12-12-12-12-12-12-12-12-12-9-9-9-|
E |7/10-10-10-10-10-10-10-10-10-10-10-10-7-7-7-|

E |-----------------------------------------|
B |-----------------------------------------|
G |-----------------------------------------|
D |-----------2-2-2-2-2-2-2-2-2-2-2-2-2-2-2-|
A |-9-9-9-9-9-2-2-4-2-2-2-4-2-2-2-4-2-2-2-4-|
E |-7-7-7-7-7-0-0-0-0-0-0-0-0-0-0-0-0-0-0-0-|

Lead Plays The same Chord Pattern as the Chorus only
using the Verse Chord Progression the Upstrokes still apply
and again, play faintly

(Chorus)

Verse 2:
All work no play
It's gonna get you baby someday
Don't need much more
Than what you got
You just need а little room to rock

(Chorus)
Common Re-occuring Lead Riff
E |----------------------|
B |----------------------|
G |----------------------|
D |10-9-7~--or-----5-4-2-|
A |----------------3-2-0-|
E |----------------------|
The Who Hoos: Quarter Bends 1/2 bend on the 12
E |-----------------------------|
B |-10-10b-10-10b-10-10b-12b-10-|
G |-----------------------------|
D |-7--7---7--7---7--7---9------|
A |-----------------------------|
E |-----------------------------|
Do the 10 bend once more and the 12 bend once more
then play the reoccuring riff once and а half
Play the Chorus Palm Muted and whisper the words

For the Outro play the Reoccuring riff with both lead and rythem,
as а round.
One plays first the other follows ect.

Thats it...Have fun
B
Listen to Bryan Adams, he rules
Другие песни: