Bryan AdamsI Will Always Return Текст

0 Голосов
E |------------------------------------|
B |----10---10~~~~-------12---10~~~~---|
G |--9----9------------9----9----------|
D |------------------------------------|
A |------------------------------------|
E |------------------------------------|

Akustische Gitarre: 2x A E D D

A E D
I still feel your breath on my skin
A E D
I hear your voice deep within
D E A D
The sound of my lover -а feeling so strong
A D E
It's to you - I'll always belong

D A F#m
Now I know it's true
D A E
My every road leads to you
D A F#m
And in the hour of darkness darlin'
D A E
Your light gets me through
D A F#m
Wanna swim in your river - be warmed by your sun
D A B C#
Bathe in your waters - cuz you are the one

D A F#m E
I can't stand the distance - I can't dream alone
D A A E
I can't wait to see you - Ya I'm on my way home

Verzerrte E -Gitarre:
E |---------------------7-7-7-7-8-7---------------------------------|
B |----10---10~~~~------------------10--------10---10~~~-9~~~-7~~~~-|
G |--9----9---------------------------------9----9------------------|
D |-----------------------------------------------------------------|
A |-----------------------------------------------------------------|
E |-----------------------------------------------------------------|

A E D
Oh I hear the wind call your name
A E D
The sound that leads me home again
D E A D
It sparks up the fire - A flame that still burns
A D E
Oh, it's to you - i will always return

D A F#m
Wanna swim in your river - be warmed by your sun
D A B C#
Bathe in your waters - cuz you are the one

D A F#m E
I can't stand the distance - I can't dream alone
D A A E A D
I can't wait to see you - Ya I'm on my way home

A E D
Oh I hear the wind call out your name
A E D
The sound that leads me home again
D E A D A
It sparks up the fire - а flame that still burns
D
Yeah, I'm on my way
A E D
i will always return
A E D
Yes, i will always return
D E
I've seen every sunset
A D
And with all that I've learned
A E
Oh it's to you - I will always .... always return
Другие песни: