Bryan AdamsHave You Ever Really Loved A Woman Текст, аккорды

0 Голосов
Intro:
E |------------|-------------|-----------|
B |------------|-------------|-----1-----|
G |-0---2-3-2--|---0-2-3-2---|---0---3-2-|
D |------------|-------------|-----------|
A |------------|-------------|-----------|
E |

The whole song (except for the solo and chorus) is arpeggioed
by hitting the 5th, 4th, 3rd, then 2nd and holding. In other
words, the first chord,

Eb is played:
E |------------|
B |---------8--|
G |-------8----|
D |-----8------|
A |--6---------|
E |------------|

Also, there are three different "step downs".
Fig1
E |---------|
B |---------|
G |--3---2--|

Fig2
E |---------|
B |--1------|
G |------3--|

Fig3
E |---------|
B |---------|
G |-0-----1-|
D |----4----|

To really love a
Eb Cm D (barred)
woman, to understand her, you've got to know her deep inside
Bb Fig1
Hear every thought, see every dream,
F
and give her wings when she wants to fly
Cm
Then when you find yourself lying helpless
Fig2 Fig3
in her arms, you know you really
C G
love A woman

CHORUS:
G D
When you love а woman, you tell her that she's really wanted
D G
When you love а woman, you tell her that she's the one
G Em7 Am7 D Am7 D
She needs somebody, to tell her that it's gonna last forever
{2nd}(She needs somebody, to tell her that you'll
always be together)
Am7 D Am7
So tell me have you ever really...really,
D G
really ever loved а woman

2nd VERSE:
To really love а woman, let her hold you,
till you know how she needs to be touched
You've got to breathe her, really taste her
till you can feel her in your blood
And when you see your unborn children in her eyes
you know you really love а woman

BRIDGE:
You've got to
Eb G
give her some faith, hold her tight,а little tenderness
G
you've got to treat her right
D G
She will be there for you taking good care of you

You really gotta love your woman

*SOLO*

Cm Fig2 Fig3
And when you find yourself lying helpless in her arms,

you know you really love а woman

CHORUS 3X
Другие песни: