Bronski BeatSmall-town Boy Текст

0 Голосов
CAPO 2ND FRET 

Intro:
e|-------0---------------3----------1-----1---------------0-------|
B|--1------1---1---0-------0---0------3-----3---3---1-------1---1-|
G|----2------2-------0-------0----------2-----2-------0-------2---|
D|------2--------------0----------0---------------------2---------|
A|0------------------------------------------------3--------------|
E|----------------3-----------------------------------------------|

MAIN RIFF
e|----------------------------------------------------------------|
B|----1-----1---1-----0-----0---0-----3-----3---3-----1-----1---1-|
G|--2-----2---------2-----2---------2-----2---------2-----2-------|
D|--------------------------------0-----0-----0-------------------|
A|0-----0-----0-----------------------------------3-----3-----3---|
E|----------------3-----3-----3-----------------------------------|

Am G
you leave in the morning with everything you own
Dm C
in a little black case
Am G Dm
alone on the platform the wind and the rain on a sad and lonely
C
face

RIFF
Am G Dm C
mother will never understand why you had to leave
Am G Dm C
for the answers you seek will never be found at home
Am G Dm C
for the love you need will never be found at home
Am G Dm C
run away turn away run away turn away runaway (TWICE)

Am G Dm C
pushed around and kicked around always a lonely boy
Am G Dm
you were the one that theyd talk about around town as they
C
put u down

Am G Dm C
and as hard as they would try theyd hurt to make you cry
Am G Dm C
but youd never cry to them just to your soul
Am G Dm C
no youd never cry to them just to your soul
Am G Dm C
Run away turn away run away turn away run away (X 4)

C Am G Dm
cry boy cry boy cry (x7)

THEN BACK TO START FINISHING AFTER FIRST CHORUS
Другие песни: