Britney SpearsScream & Shout (ft Will I Am) Текст

0 Голосов
Intro, Prechorus, Chorus, Outro Chords:
Gm Bb F C

Verse Chords or Single Notes:

"Bring the action.
When your hear us in the club .... "
E||-------------------------------|-----------------------|
B||-------------------------------|-----------------------|
G||-------------------------------|-----------------------|
D||--0-----0-----0-----0--2-3-----|---0-------------------|
A||-------------------------------|-----------------------|
E||-------------------------------|-----------------------|

E||-------|--------------------------|-------||
B||-------|--------------------------|-------||
G||-------|--------------------------|-------||
D||-------|--5----5--7--8--7--5------|-------||
A||-------|--5----5--7--8--7--5------|-------||
E||-------|--3----3--5--6--5--3------|-------||

Chorus:
"I wanna scream and shout and let it all out
And scream and shout and let it out... "
E||-----------------------------|-----------------------------|
B||-----------------------------|-----------------------------|
G||-----------------------------|-----------------------------|
D||-----------------------------|-----------------------5-----|
A||-------------------------3---|-----------------------------|
E||--3--3--3--3--3--3--3--------|--6--6--6--6--6--6--6--------|

-----------------------------|------------------------------||
-----------------------------|------------------------------||
-----------------------------|------------------------------||
-----------------------------|------------------------3-----||
--------------------------1--|--3--3--3--3--3--3--3---------||
--1--1--1--1--1--1--1--------|------------------------------||
Другие песни: