BreedersLord Of The Thighs Текст

0 Голосов
#----------------------------------PLEASE NOTE---------------------------------#

#This file is the author's own work and represents their interpretation of the #
#song. You may only use this file for private study, scholarship, or research. #
#------------------------------------------------------------------------------##
#

#----------------------------------PLEASE NOTE---------------------------------#
#This file is the author's own work and represents their interpretation of the #
#song. You may only use this file for private study, scholarship, or research. #
#------------------------------------------------------------------------------#

Date: Fri, 3 Jan 1997 00:07:27 -0800
From: Larry Secrest
Subject: TAB: Lord of the Thighs by the Breeders

(Keep in mind I'm new at this :)

C5

e ------------------------------------|
B ---------------------------6-6-6-6--|..
G --8--6---------------8--6-----------|
D --------8-8-8-8...------------------|
A ------------------------------------|
E ------------------------------------|

C A# G# G F
Don^?t (. . . ?) just to socialize
C A# G# G F
I^?m waiting for my girls and you caught my eyes
G# G C
You^?ve got the way to make a man
(C)
Honey, you^?ve got to understand
G# G C
I^?m the manchild, Lord of your thighs

C5

C A# G# G F
Well Lord, My God, What do we got here?
C A# G# G F
Your fashion across the floor make it perfectly clear
G# G C
You^?re the bait and You^?re the hook
(C)
Someone take a look
G# G C
I^?m the manchild, Lord of your thighs

C5

G# G C (w/ Riff 1)
You must have come here to find it
G# G C (w/ Riff 1)
You^?ve got that look in your eyes
G# G C (w/ Riff 1)
Although you really don^?t like it
C G# G (w/ Riff 2)
I am the Lord of your thighs

C5

G# G C (w/ Riff 1)
You must have come here to find it
G# G C (w/ Riff 1)
You^?ve got that look in your eyes
G# G C (w/ Riff 1)
Although you really don^?t like it
C G# G (w/ Riff 2)
I am the Lord of your thighs

Bass:
E -6-6-6-6-8-6-8-6-8-6-8-
A# C
C A#
(Lather, rinse, repeat. End on C.)

Riff 1: Riff 2:
e -------------- --------------|
B -------------- ----------6---|
G --8--6-6------ -8-8--6-6-----|
D ---------8---- --------------|
A -------------- --------------|
E -------------- --------------|

CHORDS:
C5 C A# G# G F
e|----|-8--|-6-|-4-|-3-|-1-|
G|----|-8--|-6-|-4-|-3-|-1-|
B|----|-9--|-7-|-5-|-4-|-2-|
D|-10-|-10-|-8-|-6-|-5-|-3-|
A|-10-|-10-|-8-|-6-|-5-|-3-|
E|-8--|-8--|-6-|-4-|-3-|-1-|
Другие песни: