Breed 77Ultima Horra Текст

0 Голосов
Track 3, Ultima Horra


Intro:

Bass comes in at 00:12

E : ------------------------------------------------------------
D : ------------------------------------------------------------
A : ------------------------------------------------------------
G : --8-8-8-13-12-8-8-8-13-12-8-8-8-13-12—6-6-9-9-9------------- x2

Verse:

E : ----------------------------------------------------------------------
D : ----------------------------------------------------------------------
A : ----------------------------------------------------------------------
G : --8-8-8-8-8-8-8-8-9-9-9-9-9-9-9-9-9—6-6-6-6-6-6-6-6-6-8-8-8-8-8-8-8-8- x3

Pre Chorus:

E : ----------------------------------
D : ----------------------------------
A : ----------------------------------
G : --6-6-6-6-6-6-6-6-8-8-8-8-8-8-8-8- x2

Chorus:

E : -------------------------------------------------------
D : -------------------------------------------------------
A : -------------------------------------------------------
G : --8-8-8-8-8-8-8-8-8-8-8-8-8-8-8-8-4-4-4-4-4-1-1-1-4-6-8

E : --------------------------------------------------
D : --------------------------------------------------
A : --------------------------------------------------
G : --8-8-8-8-8-8-8-8-8-8-8-8-8-8-8-8-4-4-4-4-4-1-1-1- 2x

Resr:

Then back to verse then pre chorus then this bit:

E : ------------
D : ------------
A : ------------
G : --8-8-8-8-8-

Then chorus again:

Then:

E : ------------R------------R------------
D : ------------E------------E------------
A : ------------S------------S------------
G : --8-8-8-----T--8-8-8-----T-8-8-8-8~~~~

E : -----------------------------------------------------------------------
D : -----------------------------------------------------------------------
A : -----------------------------------------------------------------------
G : --8-8-8-8-8-8-8-8-8-8-8-8-9-9-9-9-9—9-9-9-9-9-8-8-8-8-8-8-8-8-8-8-8-8-8

Then straight into chorus again but play it 4 times

Outro

E : ----------------
D : ----------------
A : ----------------
G : --8-8-8-9-9-9-8-


For some of the lines the exact no. of notes have not been added.
but the changes are real easy to notice. please rate this tab. and email me with any corrections
the_one_and_croly@hotmail.com
Другие песни: