Branch MichelleOn The Train Текст

0 Голосов
#-----------------------------PLEASE NOTE-----------------------------#

# This file is the author's own work and represents their interpreta- #
# tion of the song. You may only use this file for private study, #
# scholarship, or research. #
#---------------------------------------------------------------------#

Artist: Michelle Branch
Song: On The Train
Album: Unreleased (Live at Slims in SF 2nd Jun 2002)
Words & Music: Michelle Branch
From: Zachary
E-mail: cicak_cobing@yahoo.com

Standard Tuning: EADGbe

Chords Used:

Gmaj Cadd9 Emin7 A7sus4 Csus2
e| 3 3 3 3 3
b| 3 3 3 3 3
G| 0 0 0 2 0
D| 0 2 2 2 0
A| 2 3 2 0 3
E| 3 X X X X

Note: Struming for the intro makes two sections of base-string (4 last
struming & treble-string (2 first strings, some say the 3 first
strings) struming. Down stroke for base-strings & up stroke for
treble-strings. Listen to the song again for struming. Some
hammering will go when you do the base-struming with your middle
& index finger. With the tabs below will help you to understand
the struming, it's the same all the way. Csus2 will come out
during hammering.

Intro:

Gmaj Csus2 Cadd9 Emin7 Csus2 Cadd9
e|---3---3---3-----3---3---3-|---3---3---3-----3---3---3-|
b|---3---3---3-----3---3---3-|---3---3---3-----3---3---3-|
G|-----------------0---0---0-|-----------------0---0---0-|
D|-------------------2---2---|-2---2---2---------2---2---|
A|-2---2---2---2h3---3---3---|-2---2---2---2h3---3---3---|
E|-3---3---3-----------------|---------------------------|

Verse 1:

Gmaj Cadd9
The sun is going down,

Emin7 Cadd9
And the moon is going up,

Gmaj Cadd9
I'm tired of this town,

Emin7 Cadd9
And this crazy, crazy love,

Pre-Chorus 1:

Gmaj
He heard me,

Cadd9
Walk away,

Emin7 A7sus4 Gmaj
Don't wanna see his face any----more,

Gmaj
And he's laughin',

Cadd9
I'm cryin',

Emin7 A7sus4 Gmaj
As I run out the door, sing---in',

Chorus:

Gmaj Cadd9
La la la la,

Gmaj
It's time for a change,

Emin7 Cadd9
'Round here,

Gmaj Cadd9
Whoa whoa, oh oh,

A7sus4 Cadd9
'Cause I'm getting restless,

Gmaj
Just get me on the train,

Gmaj Csus2 Cadd9 Emin7 Csus2 Cadd9
e|---3---3---3-----3---3---3-|---3---3---3-----3---3---3-|
b|---3---3---3-----3---3---3-|---3---3---3-----3---3---3-|
G|-----------------0---0---0-|-----------------0---0---0-|
D|-------------------2---2---|-2---2---2---------2---2---|
A|-2---2---2---2h3---3---3---|-2---2---2---2h3---3---3---|
E|-3---3---3-----------------|---------------------------|

Verse 2:

Gmaj Cadd9
My bags have all been packed,

Emin7 Cadd9
I've been ready for a while,

Gmaj Cadd9
Wondering if it's just a fad,

Emin7 Cadd9
Are we really out of style?

Pre-Chorus 2:

Gmaj
He came in,

Cadd9
To my heart,

Emin7 A7sus4 Gmaj
And now the tables have all turned,

Gmaj
And rememberin',

Cadd9
All the bad times,

Emin7 A7sus4 Gmaj
And the things that I loved, think--in',

Chorus:

Gmaj Cadd9
La la la la,

Gmaj
It's time for a change,

Emin7 Cadd9
'Round here,

Gmaj Cadd9
Whoa whoa, oh oh,

A7sus4 Cadd9
'Cause I'm getting restless,

Gmaj
Just get me on the train,

Bridge:

Emin7 A7sus4
Where am I gonna go,

Cadd9
Far away from here?

Emin7 A7sus4 Cadd9
Oh oh, oh whoa, oh whoa, oh whoa,

Emin7 A7sus4
All the people that I know,

Cadd9
So far away from here,

Emin7
Take me somewhere,

A7sus4 Cadd9
Somewhere far away from here,

Gmaj Csus2 Cadd9 Emin7 Csus2 Cadd9
e|---3---3---3-----3---3---3-|---3---3---3-----3---3---3-|
b|---3---3---3-----3---3---3-|---3---3---3-----3---3---3-|
G|-----------------0---0---0-|-----------------0---0---0-|
D|-------------------2---2---|-2---2---2---------2---2---|
A|-2---2---2---2h3---3---3---|-2---2---2---2h3---3---3---|
E|-3---3---3-----------------|---------------------------|

Riff:

Gmaj Cadd9
The sun is going down,

Emin7 Cadd9
And the moon is going up,

Cadd9
Singin',

Chorus:

Gmaj Cadd9
La la la la,

Gmaj
It's time for a change,

Emin7 Cadd9
'Round here,

Gmaj Cadd9
Whoa whoa, oh oh,

A7sus4 Cadd9
'Cause I'm getting restless,

Gmaj
Just get me on the train,

Gmaj Cadd9
La la la la,

Gmaj
It's time for a change,

Emin7 Cadd9
'Round here,

Gmaj Cadd9
Whoa whoa, oh oh,

A7sus4 Cadd9
'Cause I'm getting restless,

Gmaj
Just get me on the train,

Fade:

Cadd9 Gmaj
Just get me on the train,

Cadd9 Gmaj
Just get me on the train,
Другие песни: