BoyzoneAll That I Need Текст

0 Голосов
All That I Need

Boyzone
tabbed by: roy
This is my 1st Tab, so... if u find some mistakes, plz email me
to rockdrigoy2k@hotmail.com

Chords:

C G Am F
e --0-----3------0----1-----|
B --1-----3------1----1-----|
G --0-----0------2----2-----|
D --2-----0------2----3-----|
A --3-----2------0----3-----|
E --x-----3------x----1-----|


Intro:

C G Am F

e |----8-8-8-7------------------------------------------------------------|
B |------------10--8--8-8-10-10/12--10--8---------------------------------|
G |---------------------------------------9--9-10-12-12--10-9------9h10-9-|
D |-----------------------------------------------------------10----------|
A |-----------------------------------------------------------------------|
E |-----------------------------------------------------------------------|

Verses and bridge is like this:

C G Am F
e ------------------------------------------------------------------|
B ---1-----1-----1----3-----3-----3---1-----1-----1-----------------|
G -----0-----0----------0-----0---------2-----2-------2-----2-----2-|
D -------2-----2----------0-----0---------2-----2-------3-----3-----|
A -3--------------------------------0---------------------3-----3---|
E ------------------3-------------------------------1---------------|

And the Chorus is the same Chords

When The 1st Chorus end play this

C G Am F

e |--------8-7------------------------------------------------------------|
B |------------10--8--8-8-10-10/12--10--8---------------------------------|
G |---------------------------------------9--9-10-12-12--10-9------9h10-9-|
D |-----------------------------------------------------------10----------|
A |-----------------------------------------------------------------------|
E |-----------------------------------------------------------------------|


Guitar Solo:

e |--7-5-5--5-8-7---------------------------------|
B |---------------10-8----------------------------|
G |--------------------9-7/5-7--10-9-7----7-------|
D |------------------------------------10----7-5--|
A |-----------------------------------------------|
E |-----------------------------------------------|


Chorus and Fade.

Questions??? --> rockdrigoy2k@hotmail.com
Другие песни: